  0
SECTION
  2
HEADER
  9
$ACADVER
  1
AC1009
  9
$INSBASE
 10
0.0
 20
0.0
 30
0.0
  9
$EXTMIN
 10
77.240727
 20
-36.070932
 30
0.0
  9
$EXTMAX
 10
98.640727
 20
-14.670932
 30
0.9
  9
$LIMMIN
 10
0.0
 20
0.0
  9
$LIMMAX
 10
12.0
 20
9.0
  9
$ORTHOMODE
 70
     0
  9
$REGENMODE
 70
     1
  9
$FILLMODE
 70
     1
  9
$QTEXTMODE
 70
     0
  9
$MIRRTEXT
 70
     1
  9
$DRAGMODE
 70
     2
  9
$LTSCALE
 40
1.0
  9
$OSMODE
 70
     0
  9
$ATTMODE
 70
     1
  9
$TEXTSIZE
 40
0.15
  9
$TRACEWID
 40
0.05
  9
$TEXTSTYLE
  7
COUNTRYBLUEPRINT
  9
$CLAYER
  8
0
  9
$CELTYPE
  6
BYLAYER
  9
$CECOLOR
 62
   256
  9
$DIMSCALE
 40
1.0
  9
$DIMASZ
 40
0.18
  9
$DIMEXO
 40
0.0625
  9
$DIMDLI
 40
0.38
  9
$DIMRND
 40
0.0
  9
$DIMDLE
 40
0.0
  9
$DIMEXE
 40
0.18
  9
$DIMTP
 40
0.0
  9
$DIMTM
 40
0.0
  9
$DIMTXT
 40
0.18
  9
$DIMCEN
 40
0.09
  9
$DIMTSZ
 40
0.0
  9
$DIMTOL
 70
     0
  9
$DIMLIM
 70
     0
  9
$DIMTIH
 70
     1
  9
$DIMTOH
 70
     1
  9
$DIMSE1
 70
     0
  9
$DIMSE2
 70
     0
  9
$DIMTAD
 70
     0
  9
$DIMZIN
 70
     0
  9
$DIMBLK
  1

  9
$DIMASO
 70
     1
  9
$DIMSHO
 70
     1
  9
$DIMPOST
  1

  9
$DIMAPOST
  1

  9
$DIMALT
 70
     0
  9
$DIMALTD
 70
     2
  9
$DIMALTF
 40
25.4
  9
$DIMLFAC
 40
1.0
  9
$DIMTOFL
 70
     0
  9
$DIMTVP
 40
0.0
  9
$DIMTIX
 70
     0
  9
$DIMSOXD
 70
     0
  9
$DIMSAH
 70
     0
  9
$DIMBLK1
  1

  9
$DIMBLK2
  1

  9
$DIMSTYLE
  2
*UNNAMED
  9
$DIMCLRD
 70
     0
  9
$DIMCLRE
 70
     0
  9
$DIMCLRT
 70
     0
  9
$DIMTFAC
 40
1.0
  9
$DIMGAP
 40
0.09
  9
$LUNITS
 70
     2
  9
$LUPREC
 70
     4
  9
$SKETCHINC
 40
0.1
  9
$FILLETRAD
 40
0.0
  9
$AUNITS
 70
     1
  9
$AUPREC
 70
     0
  9
$MENU
  1
ACAD
  9
$ELEVATION
 40
0.0
  9
$PELEVATION
 40
0.0
  9
$THICKNESS
 40
0.0
  9
$LIMCHECK
 70
     0
  9
$BLIPMODE
 70
     1
  9
$CHAMFERA
 40
0.25
  9
$CHAMFERB
 40
0.25
  9
$SKPOLY
 70
     0
  9
$TDCREATE
 40
2449300.711716782
  9
$TDUPDATE
 40
2450007.824540972
  9
$TDINDWG
 40
0.6294375000
  9
$TDUSRTIMER
 40
0.6294375000
  9
$USRTIMER
 70
     1
  9
$ANGBASE
 50
90.0
  9
$ANGDIR
 70
     1
  9
$PDMODE
 70
    34
  9
$PDSIZE
 40
0.9
  9
$PLINEWID
 40
0.0
  9
$COORDS
 70
     2
  9
$SPLFRAME
 70
     0
  9
$SPLINETYPE
 70
     6
  9
$SPLINESEGS
 70
     8
  9
$ATTDIA
 70
     0
  9
$ATTREQ
 70
     1
  9
$HANDLING
 70
     1
  9
$HANDSEED
  5
2003
  9
$SURFTAB1
 70
     6
  9
$SURFTAB2
 70
     6
  9
$SURFTYPE
 70
     6
  9
$SURFU
 70
     6
  9
$SURFV
 70
     6
  9
$UCSNAME
  2

  9
$UCSORG
 10
0.0
 20
0.0
 30
0.0
  9
$UCSXDIR
 10
1.0
 20
0.0
 30
0.0
  9
$UCSYDIR
 10
0.0
 20
1.0
 30
0.0
  9
$PUCSNAME
  2

  9
$PUCSORG
 10
0.0
 20
0.0
 30
0.0
  9
$PUCSXDIR
 10
1.0
 20
0.0
 30
0.0
  9
$PUCSYDIR
 10
0.0
 20
1.0
 30
0.0
  9
$USERI1
 70
     0
  9
$USERI2
 70
     0
  9
$USERI3
 70
     0
  9
$USERI4
 70
     0
  9
$USERI5
 70
     0
  9
$USERR1
 40
0.0
  9
$USERR2
 40
0.0
  9
$USERR3
 40
0.0
  9
$USERR4
 40
0.0
  9
$USERR5
 40
0.0
  9
$WORLDVIEW
 70
     1
  9
$SHADEDGE
 70
     3
  9
$SHADEDIF
 70
    70
  9
$TILEMODE
 70
     1
  9
$MAXACTVP
 70
    16
  9
$PINSBASE
 10
0.0
 20
0.0
 30
0.0
  9
$PLIMCHECK
 70
     0
  9
$PEXTMIN
 10
1.000000E+20
 20
1.000000E+20
 30
1.000000E+20
  9
$PEXTMAX
 10
-1.000000E+20
 20
-1.000000E+20
 30
-1.000000E+20
  9
$PLIMMIN
 10
0.0
 20
0.0
  9
$PLIMMAX
 10
12.0
 20
9.0
  9
$UNITMODE
 70
     0
  9
$VISRETAIN
 70
     0
  9
$PLINEGEN
 70
     0
  9
$PSLTSCALE
 70
     1
  9
$TREEDEPTH
 70
  3020
  9
$DWGCODEPAGE
  3
ascii
  0
ENDSEC
  0
SECTION
  2
TABLES
  0
TABLE
  2
VPORT
 70
     2
  0
VPORT
  2
*ACTIVE
 70
     0
 10
0.0
 20
0.0
 11
1.0
 21
1.0
 12
91.915586
 22
-25.370932
 13
0.0
 23
0.0
 14
1.0
 24
1.0
 15
0.0
 25
0.0
 16
0.0
 26
0.0
 36
1.0
 17
0.0
 27
0.0
 37
0.0
 40
21.4
 41
1.371482
 42
50.0
 43
0.0
 44
0.0
 50
0.0
 51
0.0
 71
     0
 72
   100
 73
     1
 74
     0
 75
     0
 76
     0
 77
     0
 78
     0
  0
ENDTAB
  0
TABLE
  2
LTYPE
 70
     1
  0
LTYPE
  2
CONTINUOUS
 70
    64
  3
Solid line
 72
    65
 73
     0
 40
0.0
  0
ENDTAB
  0
TABLE
  2
LAYER
 70
     3
  0
LAYER
  2
0
 70
    64
 62
     7
  6
CONTINUOUS
  0
LAYER
  2
ASHADE
 70
    64
 62
     7
  6
CONTINUOUS
  0
LAYER
  2
SIGN
 70
    64
 62
     5
  6
CONTINUOUS
  0
ENDTAB
  0
TABLE
  2
STYLE
 70
    11
  0
STYLE
  2
STANDARD
 70
    64
 40
2.0
 41
0.75
 50
0.0
 71
     0
 42
0.15
  3
TIMES.SHX
  4

  0
STYLE
  2
ROMAND
 70
    64
 40
2.0
 41
1.0
 50
0.0
 71
     0
 42
2.0
  3
romand
  4

  0
STYLE
  2
PANROMAN
 70
    64
 40
0.0
 41
1.0
 50
0.0
 71
     0
 42
2.0
  3
par_____.pfb
  4

  0
STYLE
  2
ROMANT
 70
    64
 40
0.0
 41
1.0
 50
0.0
 71
     0
 42
4.0
  3
romant
  4

  0
STYLE
  2
SANSSERIFBOLD
 70
    64
 40
1.0
 41
1.0
 50
0.0
 71
     0
 42
1.0
  3
sasb____.pfb
  4

  0
STYLE
  2
SCRIPTS
 70
    64
 40
0.5
 41
1.0
 50
0.0
 71
     0
 42
0.5
  3
scripts
  4

  0
STYLE
  2
CITYBLUEPRINT
 70
    64
 40
0.15
 41
0.75
 50
0.0
 71
     0
 42
0.15
  3
cibt____.pfb
  4

  0
STYLE
  2
ROMANS
 70
    64
 40
0.5
 41
1.0
 50
0.0
 71
     0
 42
0.5
  3
romans
  4

  0
STYLE
  2
SUPERFRENCH
 70
    64
 40
2.0
 41
1.0
 50
0.0
 71
     0
 42
2.0
  3
suf_____.pfb
  4

  0
STYLE
  2
ROMANC
 70
    64
 40
4.0
 41
1.0
 50
0.0
 71
     0
 42
4.0
  3
romanc
  4

  0
STYLE
  2
COUNTRYBLUEPRINT
 70
    64
 40
0.15
 41
1.0
 50
0.0
 71
     0
 42
0.15
  3
cobt____.pfb
  4

  0
ENDTAB
  0
TABLE
  2
VIEW
 70
     0
  0
ENDTAB
  0
TABLE
  2
UCS
 70
     0
  0
ENDTAB
  0
TABLE
  2
APPID
 70
     2
  0
APPID
  2
ACAD
 70
    64
  0
APPID
  2
AVE_RENDER
 70
    64
  0
ENDTAB
  0
TABLE
  2
DIMSTYLE
 70
     0
  0
ENDTAB
  0
ENDSEC
  0
SECTION
  2
BLOCKS
  0
BLOCK
  8
0
  5
88
  2
AVE_RENDER
 70
    64
 10
0.0
 20
0.0
 30
0.0
  1
AVE_RENDER
  3
AVE_RENDER
  0
ENDBLK
  8
0
  5
89
  0
BLOCK
  8
0
  5
2B5
  2
*X1
 70
    65
 10
0.0
 20
0.0
 30
0.0
  1
AVE_RENDER
  3
*X
  0
LINE
  8
0
 62
     0
  5
2B7
 10
9.40625
 20
11.1875
 30
0.0
 11
9.40625
 21
11.1875
 31
0.0
  0
LINE
  8
0
 62
     0
  5
2B8
 10
9.46875
 20
11.1875
 30
0.0
 11
9.46875
 21
11.1875
 31
0.0
  0
LINE
  8
0
 62
     0
  5
2B9
 10
9.53125
 20
11.1875
 30
0.0
 11
9.53125
 21
11.1875
 31
0.0
  0
LINE
  8
0
 62
     0
  5
2BA
 10
9.59375
 20
11.1875
 30
0.0
 11
9.59375
 21
11.1875
 31
0.0
  0
LINE
  8
0
 62
     0
  5
2BB
 10
9.65625
 20
11.1875
 30
0.0
 11
9.65625
 21
11.1875
 31
0.0
  0
LINE
  8
0
 62
     0
  5
2BC
 10
9.71875
 20
11.1875
 30
0.0
 11
9.71875
 21
11.1875
 31
0.0
  0
LINE
  8
0
 62
     0
  5
2BD
 10
9.78125
 20
11.1875
 30
0.0
 11
9.78125
 21
11.1875
 31
0.0
  0
LINE
  8
0
 62
     0
  5
2BE
 10
9.84375
 20
11.1875
 30
0.0
 11
9.84375
 21
11.1875
 31
0.0
  0
LINE
  8
0
 62
     0
  5
2BF
 10
9.90625
 20
11.1875
 30
0.0
 11
9.90625
 21
11.1875
 31
0.0
  0
LINE
  8
0
 62
     0
  5
2C0
 10
9.96875
 20
11.1875
 30
0.0
 11
9.96875
 21
11.1875
 31
0.0
  0
LINE
  8
0
 62
     0
  5
2C1
 10
9.4375
 20
11.25
 30
0.0
 11
9.4375
 21
11.25
 31
0.0
  0
LINE
  8
0
 62
     0
  5
2C2
 10
9.5
 20
11.25
 30
0.0
 11
9.5
 21
11.25
 31
0.0
  0
LINE
  8
0
 62
     0
  5
2C3
 10
9.5625
 20
11.25
 30
0.0
 11
9.5625
 21
11.25
 31
0.0
  0
LINE
  8
0
 62
     0
  5
2C4
 10
9.625
 20
11.25
 30
0.0
 11
9.625
 21
11.25
 31
0.0
  0
LINE
  8
0
 62
     0
  5
2C5
 10
9.6875
 20
11.25
 30
0.0
 11
9.6875
 21
11.25
 31
0.0
  0
LINE
  8
0
 62
     0
  5
2C6
 10
9.75
 20
11.25
 30
0.0
 11
9.75
 21
11.25
 31
0.0
  0
LINE
  8
0
 62
     0
  5
2C7
 10
9.8125
 20
11.25
 30
0.0
 11
9.8125
 21
11.25
 31
0.0
  0
LINE
  8
0
 62
     0
  5
2C8
 10
9.875
 20
11.25
 30
0.0
 11
9.875
 21
11.25
 31
0.0
  0
LINE
  8
0
 62
     0
  5
2C9
 10
9.9375
 20
11.25
 30
0.0
 11
9.9375
 21
11.25
 31
0.0
  0
LINE
  8
0
 62
     0
  5
2CA
 10
10.0
 20
11.25
 30
0.0
 11
10.0
 21
11.25
 31
0.0
  0
LINE
  8
0
 62
     0
  5
2CB
 10
9.46875
 20
11.3125
 30
0.0
 11
9.46875
 21
11.3125
 31
0.0
  0
LINE
  8
0
 62
     0
  5
2CC
 10
9.53125
 20
11.3125
 30
0.0
 11
9.53125
 21
11.3125
 31
0.0
  0
LINE
  8
0
 62
     0
  5
2CD
 10
9.59375
 20
11.3125
 30
0.0
 11
9.59375
 21
11.3125
 31
0.0
  0
LINE
  8
0
 62
     0
  5
2CE
 10
9.65625
 20
11.3125
 30
0.0
 11
9.65625
 21
11.3125
 31
0.0
  0
LINE
  8
0
 62
     0
  5
2CF
 10
9.71875
 20
11.3125
 30
0.0
 11
9.71875
 21
11.3125
 31
0.0
  0
LINE
  8
0
 62
     0
  5
2D0
 10
9.78125
 20
11.3125
 30
0.0
 11
9.78125
 21
11.3125
 31
0.0
  0
LINE
  8
0
 62
     0
  5
2D1
 10
9.84375
 20
11.3125
 30
0.0
 11
9.84375
 21
11.3125
 31
0.0
  0
LINE
  8
0
 62
     0
  5
2D2
 10
9.90625
 20
11.3125
 30
0.0
 11
9.90625
 21
11.3125
 31
0.0
  0
LINE
  8
0
 62
     0
  5
2D3
 10
9.96875
 20
11.3125
 30
0.0
 11
9.96875
 21
11.3125
 31
0.0
  0
LINE
  8
0
 62
     0
  5
2D4
 10
9.5
 20
11.375
 30
0.0
 11
9.5
 21
11.375
 31
0.0
  0
LINE
  8
0
 62
     0
  5
2D5
 10
9.5625
 20
11.375
 30
0.0
 11
9.5625
 21
11.375
 31
0.0
  0
LINE
  8
0
 62
     0
  5
2D6
 10
9.625
 20
11.375
 30
0.0
 11
9.625
 21
11.375
 31
0.0
  0
LINE
  8
0
 62
     0
  5
2D7
 10
9.6875
 20
11.375
 30
0.0
 11
9.6875
 21
11.375
 31
0.0
  0
LINE
  8
0
 62
     0
  5
2D8
 10
9.75
 20
11.375
 30
0.0
 11
9.75
 21
11.375
 31
0.0
  0
LINE
  8
0
 62
     0
  5
2D9
 10
9.8125
 20
11.375
 30
0.0
 11
9.8125
 21
11.375
 31
0.0
  0
LINE
  8
0
 62
     0
  5
2DA
 10
9.875
 20
11.375
 30
0.0
 11
9.875
 21
11.375
 31
0.0
  0
LINE
  8
0
 62
     0
  5
2DB
 10
9.9375
 20
11.375
 30
0.0
 11
9.9375
 21
11.375
 31
0.0
  0
LINE
  8
0
 62
     0
  5
2DC
 10
10.0
 20
11.375
 30
0.0
 11
10.0
 21
11.375
 31
0.0
  0
LINE
  8
0
 62
     0
  5
2DD
 10
9.53125
 20
11.4375
 30
0.0
 11
9.53125
 21
11.4375
 31
0.0
  0
LINE
  8
0
 62
     0
  5
2DE
 10
9.59375
 20
11.4375
 30
0.0
 11
9.59375
 21
11.4375
 31
0.0
  0
LINE
  8
0
 62
     0
  5
2DF
 10
9.65625
 20
11.4375
 30
0.0
 11
9.65625
 21
11.4375
 31
0.0
  0
LINE
  8
0
 62
     0
  5
2E0
 10
9.71875
 20
11.4375
 30
0.0
 11
9.71875
 21
11.4375
 31
0.0
  0
LINE
  8
0
 62
     0
  5
2E1
 10
9.78125
 20
11.4375
 30
0.0
 11
9.78125
 21
11.4375
 31
0.0
  0
LINE
  8
0
 62
     0
  5
2E2
 10
9.84375
 20
11.4375
 30
0.0
 11
9.84375
 21
11.4375
 31
0.0
  0
LINE
  8
0
 62
     0
  5
2E3
 10
9.90625
 20
11.4375
 30
0.0
 11
9.90625
 21
11.4375
 31
0.0
  0
LINE
  8
0
 62
     0
  5
2E4
 10
9.96875
 20
11.4375
 30
0.0
 11
9.96875
 21
11.4375
 31
0.0
  0
LINE
  8
0
 62
     0
  5
2E5
 10
9.5625
 20
11.5
 30
0.0
 11
9.5625
 21
11.5
 31
0.0
  0
LINE
  8
0
 62
     0
  5
2E6
 10
9.625
 20
11.5
 30
0.0
 11
9.625
 21
11.5
 31
0.0
  0
LINE
  8
0
 62
     0
  5
2E7
 10
9.6875
 20
11.5
 30
0.0
 11
9.6875
 21
11.5
 31
0.0
  0
LINE
  8
0
 62
     0
  5
2E8
 10
9.75
 20
11.5
 30
0.0
 11
9.75
 21
11.5
 31
0.0
  0
LINE
  8
0
 62
     0
  5
2E9
 10
9.8125
 20
11.5
 30
0.0
 11
9.8125
 21
11.5
 31
0.0
  0
LINE
  8
0
 62
     0
  5
2EA
 10
9.875
 20
11.5
 30
0.0
 11
9.875
 21
11.5
 31
0.0
  0
LINE
  8
0
 62
     0
  5
2EB
 10
9.9375
 20
11.5
 30
0.0
 11
9.9375
 21
11.5
 31
0.0
  0
LINE
  8
0
 62
     0
  5
2EC
 10
10.0
 20
11.5
 30
0.0
 11
10.0
 21
11.5
 31
0.0
  0
LINE
  8
0
 62
     0
  5
2ED
 10
9.59375
 20
11.5625
 30
0.0
 11
9.59375
 21
11.5625
 31
0.0
  0
LINE
  8
0
 62
     0
  5
2EE
 10
9.65625
 20
11.5625
 30
0.0
 11
9.65625
 21
11.5625
 31
0.0
  0
LINE
  8
0
 62
     0
  5
2EF
 10
9.71875
 20
11.5625
 30
0.0
 11
9.71875
 21
11.5625
 31
0.0
  0
LINE
  8
0
 62
     0
  5
2F0
 10
9.78125
 20
11.5625
 30
0.0
 11
9.78125
 21
11.5625
 31
0.0
  0
LINE
  8
0
 62
     0
  5
2F1
 10
9.84375
 20
11.5625
 30
0.0
 11
9.84375
 21
11.5625
 31
0.0
  0
LINE
  8
0
 62
     0
  5
2F2
 10
9.90625
 20
11.5625
 30
0.0
 11
9.90625
 21
11.5625
 31
0.0
  0
LINE
  8
0
 62
     0
  5
2F3
 10
9.96875
 20
11.5625
 30
0.0
 11
9.96875
 21
11.5625
 31
0.0
  0
LINE
  8
0
 62
     0
  5
2F4
 10
9.625
 20
11.625
 30
0.0
 11
9.625
 21
11.625
 31
0.0
  0
LINE
  8
0
 62
     0
  5
2F5
 10
9.6875
 20
11.625
 30
0.0
 11
9.6875
 21
11.625
 31
0.0
  0
LINE
  8
0
 62
     0
  5
2F6
 10
9.75
 20
11.625
 30
0.0
 11
9.75
 21
11.625
 31
0.0
  0
LINE
  8
0
 62
     0
  5
2F7
 10
9.8125
 20
11.625
 30
0.0
 11
9.8125
 21
11.625
 31
0.0
  0
LINE
  8
0
 62
     0
  5
2F8
 10
9.875
 20
11.625
 30
0.0
 11
9.875
 21
11.625
 31
0.0
  0
LINE
  8
0
 62
     0
  5
2F9
 10
9.9375
 20
11.625
 30
0.0
 11
9.9375
 21
11.625
 31
0.0
  0
LINE
  8
0
 62
     0
  5
2FA
 10
10.0
 20
11.625
 30
0.0
 11
10.0
 21
11.625
 31
0.0
  0
LINE
  8
0
 62
     0
  5
2FB
 10
9.65625
 20
11.6875
 30
0.0
 11
9.65625
 21
11.6875
 31
0.0
  0
LINE
  8
0
 62
     0
  5
2FC
 10
9.71875
 20
11.6875
 30
0.0
 11
9.71875
 21
11.6875
 31
0.0
  0
LINE
  8
0
 62
     0
  5
2FD
 10
9.78125
 20
11.6875
 30
0.0
 11
9.78125
 21
11.6875
 31
0.0
  0
LINE
  8
0
 62
     0
  5
2FE
 10
9.84375
 20
11.6875
 30
0.0
 11
9.84375
 21
11.6875
 31
0.0
  0
LINE
  8
0
 62
     0
  5
2FF
 10
9.90625
 20
11.6875
 30
0.0
 11
9.90625
 21
11.6875
 31
0.0
  0
LINE
  8
0
 62
     0
  5
300
 10
9.96875
 20
11.6875
 30
0.0
 11
9.96875
 21
11.6875
 31
0.0
  0
LINE
  8
0
 62
     0
  5
301
 10
9.6875
 20
11.75
 30
0.0
 11
9.6875
 21
11.75
 31
0.0
  0
LINE
  8
0
 62
     0
  5
302
 10
9.75
 20
11.75
 30
0.0
 11
9.75
 21
11.75
 31
0.0
  0
LINE
  8
0
 62
     0
  5
303
 10
9.8125
 20
11.75
 30
0.0
 11
9.8125
 21
11.75
 31
0.0
  0
LINE
  8
0
 62
     0
  5
304
 10
9.875
 20
11.75
 30
0.0
 11
9.875
 21
11.75
 31
0.0
  0
LINE
  8
0
 62
     0
  5
305
 10
9.9375
 20
11.75
 30
0.0
 11
9.9375
 21
11.75
 31
0.0
  0
LINE
  8
0
 62
     0
  5
306
 10
10.0
 20
11.75
 30
0.0
 11
10.0
 21
11.75
 31
0.0
  0
LINE
  8
0
 62
     0
  5
307
 10
9.71875
 20
11.8125
 30
0.0
 11
9.71875
 21
11.8125
 31
0.0
  0
LINE
  8
0
 62
     0
  5
308
 10
9.78125
 20
11.8125
 30
0.0
 11
9.78125
 21
11.8125
 31
0.0
  0
LINE
  8
0
 62
     0
  5
309
 10
9.84375
 20
11.8125
 30
0.0
 11
9.84375
 21
11.8125
 31
0.0
  0
LINE
  8
0
 62
     0
  5
30A
 10
9.90625
 20
11.8125
 30
0.0
 11
9.90625
 21
11.8125
 31
0.0
  0
LINE
  8
0
 62
     0
  5
30B
 10
9.96875
 20
11.8125
 30
0.0
 11
9.96875
 21
11.8125
 31
0.0
  0
LINE
  8
0
 62
     0
  5
30C
 10
9.75
 20
11.875
 30
0.0
 11
9.75
 21
11.875
 31
0.0
  0
LINE
  8
0
 62
     0
  5
30D
 10
9.8125
 20
11.875
 30
0.0
 11
9.8125
 21
11.875
 31
0.0
  0
LINE
  8
0
 62
     0
  5
30E
 10
9.875
 20
11.875
 30
0.0
 11
9.875
 21
11.875
 31
0.0
  0
LINE
  8
0
 62
     0
  5
30F
 10
9.9375
 20
11.875
 30
0.0
 11
9.9375
 21
11.875
 31
0.0
  0
LINE
  8
0
 62
     0
  5
310
 10
10.0
 20
11.875
 30
0.0
 11
10.0
 21
11.875
 31
0.0
  0
LINE
  8
0
 62
     0
  5
311
 10
9.78125
 20
11.9375
 30
0.0
 11
9.78125
 21
11.9375
 31
0.0
  0
LINE
  8
0
 62
     0
  5
312
 10
9.84375
 20
11.9375
 30
0.0
 11
9.84375
 21
11.9375
 31
0.0
  0
LINE
  8
0
 62
     0
  5
313
 10
9.90625
 20
11.9375
 30
0.0
 11
9.90625
 21
11.9375
 31
0.0
  0
LINE
  8
0
 62
     0
  5
314
 10
9.96875
 20
11.9375
 30
0.0
 11
9.96875
 21
11.9375
 31
0.0
  0
LINE
  8
0
 62
     0
  5
315
 10
9.8125
 20
12.0
 30
0.0
 11
9.8125
 21
12.0
 31
0.0
  0
LINE
  8
0
 62
     0
  5
316
 10
9.875
 20
12.0
 30
0.0
 11
9.875
 21
12.0
 31
0.0
  0
LINE
  8
0
 62
     0
  5
317
 10
9.9375
 20
12.0
 30
0.0
 11
9.9375
 21
12.0
 31
0.0
  0
LINE
  8
0
 62
     0
  5
318
 10
10.0
 20
12.0
 30
0.0
 11
10.0
 21
12.0
 31
0.0
  0
LINE
  8
0
 62
     0
  5
319
 10
9.84375
 20
12.0625
 30
0.0
 11
9.84375
 21
12.0625
 31
0.0
  0
LINE
  8
0
 62
     0
  5
31A
 10
9.90625
 20
12.0625
 30
0.0
 11
9.90625
 21
12.0625
 31
0.0
  0
LINE
  8
0
 62
     0
  5
31B
 10
9.96875
 20
12.0625
 30
0.0
 11
9.96875
 21
12.0625
 31
0.0
  0
LINE
  8
0
 62
     0
  5
31C
 10
9.875
 20
12.125
 30
0.0
 11
9.875
 21
12.125
 31
0.0
  0
LINE
  8
0
 62
     0
  5
31D
 10
9.9375
 20
12.125
 30
0.0
 11
9.9375
 21
12.125
 31
0.0
  0
LINE
  8
0
 62
     0
  5
31E
 10
10.0
 20
12.125
 30
0.0
 11
10.0
 21
12.125
 31
0.0
  0
LINE
  8
0
 62
     0
  5
31F
 10
9.90625
 20
12.1875
 30
0.0
 11
9.90625
 21
12.1875
 31
0.0
  0
LINE
  8
0
 62
     0
  5
320
 10
9.96875
 20
12.1875
 30
0.0
 11
9.96875
 21
12.1875
 31
0.0
  0
LINE
  8
0
 62
     0
  5
321
 10
9.9375
 20
12.25
 30
0.0
 11
9.9375
 21
12.25
 31
0.0
  0
LINE
  8
0
 62
     0
  5
322
 10
10.0
 20
12.25
 30
0.0
 11
10.0
 21
12.25
 31
0.0
  0
LINE
  8
0
 62
     0
  5
323
 10
9.96875
 20
12.3125
 30
0.0
 11
9.96875
 21
12.3125
 31
0.0
  0
LINE
  8
0
 62
     0
  5
324
 10
10.0
 20
12.375
 30
0.0
 11
10.0
 21
12.375
 31
0.0
  0
LINE
  8
0
 62
     0
  5
325
 10
9.375
 20
11.125
 30
0.0
 11
9.375
 21
11.125
 31
0.0
  0
LINE
  8
0
 62
     0
  5
326
 10
9.4375
 20
11.125
 30
0.0
 11
9.4375
 21
11.125
 31
0.0
  0
LINE
  8
0
 62
     0
  5
327
 10
9.5
 20
11.125
 30
0.0
 11
9.5
 21
11.125
 31
0.0
  0
LINE
  8
0
 62
     0
  5
328
 10
9.5625
 20
11.125
 30
0.0
 11
9.5625
 21
11.125
 31
0.0
  0
LINE
  8
0
 62
     0
  5
329
 10
9.625
 20
11.125
 30
0.0
 11
9.625
 21
11.125
 31
0.0
  0
LINE
  8
0
 62
     0
  5
32A
 10
9.6875
 20
11.125
 30
0.0
 11
9.6875
 21
11.125
 31
0.0
  0
LINE
  8
0
 62
     0
  5
32B
 10
9.75
 20
11.125
 30
0.0
 11
9.75
 21
11.125
 31
0.0
  0
LINE
  8
0
 62
     0
  5
32C
 10
9.8125
 20
11.125
 30
0.0
 11
9.8125
 21
11.125
 31
0.0
  0
LINE
  8
0
 62
     0
  5
32D
 10
9.875
 20
11.125
 30
0.0
 11
9.875
 21
11.125
 31
0.0
  0
LINE
  8
0
 62
     0
  5
32E
 10
9.9375
 20
11.125
 30
0.0
 11
9.9375
 21
11.125
 31
0.0
  0
LINE
  8
0
 62
     0
  5
32F
 10
10.0
 20
11.125
 30
0.0
 11
10.0
 21
11.125
 31
0.0
  0
LINE
  8
0
 62
     0
  5
330
 10
9.34375
 20
11.0625
 30
0.0
 11
9.34375
 21
11.0625
 31
0.0
  0
LINE
  8
0
 62
     0
  5
331
 10
9.40625
 20
11.0625
 30
0.0
 11
9.40625
 21
11.0625
 31
0.0
  0
LINE
  8
0
 62
     0
  5
332
 10
9.46875
 20
11.0625
 30
0.0
 11
9.46875
 21
11.0625
 31
0.0
  0
LINE
  8
0
 62
     0
  5
333
 10
9.53125
 20
11.0625
 30
0.0
 11
9.53125
 21
11.0625
 31
0.0
  0
LINE
  8
0
 62
     0
  5
334
 10
9.59375
 20
11.0625
 30
0.0
 11
9.59375
 21
11.0625
 31
0.0
  0
LINE
  8
0
 62
     0
  5
335
 10
9.65625
 20
11.0625
 30
0.0
 11
9.65625
 21
11.0625
 31
0.0
  0
LINE
  8
0
 62
     0
  5
336
 10
9.71875
 20
11.0625
 30
0.0
 11
9.71875
 21
11.0625
 31
0.0
  0
LINE
  8
0
 62
     0
  5
337
 10
9.78125
 20
11.0625
 30
0.0
 11
9.78125
 21
11.0625
 31
0.0
  0
LINE
  8
0
 62
     0
  5
338
 10
9.84375
 20
11.0625
 30
0.0
 11
9.84375
 21
11.0625
 31
0.0
  0
LINE
  8
0
 62
     0
  5
339
 10
9.90625
 20
11.0625
 30
0.0
 11
9.90625
 21
11.0625
 31
0.0
  0
LINE
  8
0
 62
     0
  5
33A
 10
9.96875
 20
11.0625
 30
0.0
 11
9.96875
 21
11.0625
 31
0.0
  0
LINE
  8
0
 62
     0
  5
33B
 10
9.3125
 20
11.0
 30
0.0
 11
9.3125
 21
11.0
 31
0.0
  0
LINE
  8
0
 62
     0
  5
33C
 10
9.375
 20
11.0
 30
0.0
 11
9.375
 21
11.0
 31
0.0
  0
LINE
  8
0
 62
     0
  5
33D
 10
9.4375
 20
11.0
 30
0.0
 11
9.4375
 21
11.0
 31
0.0
  0
LINE
  8
0
 62
     0
  5
33E
 10
9.5
 20
11.0
 30
0.0
 11
9.5
 21
11.0
 31
0.0
  0
LINE
  8
0
 62
     0
  5
33F
 10
9.5625
 20
11.0
 30
0.0
 11
9.5625
 21
11.0
 31
0.0
  0
LINE
  8
0
 62
     0
  5
340
 10
9.625
 20
11.0
 30
0.0
 11
9.625
 21
11.0
 31
0.0
  0
LINE
  8
0
 62
     0
  5
341
 10
9.6875
 20
11.0
 30
0.0
 11
9.6875
 21
11.0
 31
0.0
  0
LINE
  8
0
 62
     0
  5
342
 10
9.75
 20
11.0
 30
0.0
 11
9.75
 21
11.0
 31
0.0
  0
LINE
  8
0
 62
     0
  5
343
 10
9.8125
 20
11.0
 30
0.0
 11
9.8125
 21
11.0
 31
0.0
  0
LINE
  8
0
 62
     0
  5
344
 10
9.875
 20
11.0
 30
0.0
 11
9.875
 21
11.0
 31
0.0
  0
LINE
  8
0
 62
     0
  5
345
 10
9.9375
 20
11.0
 30
0.0
 11
9.9375
 21
11.0
 31
0.0
  0
LINE
  8
0
 62
     0
  5
346
 10
10.0
 20
11.0
 30
0.0
 11
10.0
 21
11.0
 31
0.0
  0
LINE
  8
0
 62
     0
  5
347
 10
9.34375
 20
10.9375
 30
0.0
 11
9.34375
 21
10.9375
 31
0.0
  0
LINE
  8
0
 62
     0
  5
348
 10
9.40625
 20
10.9375
 30
0.0
 11
9.40625
 21
10.9375
 31
0.0
  0
LINE
  8
0
 62
     0
  5
349
 10
9.46875
 20
10.9375
 30
0.0
 11
9.46875
 21
10.9375
 31
0.0
  0
LINE
  8
0
 62
     0
  5
34A
 10
9.53125
 20
10.9375
 30
0.0
 11
9.53125
 21
10.9375
 31
0.0
  0
LINE
  8
0
 62
     0
  5
34B
 10
9.59375
 20
10.9375
 30
0.0
 11
9.59375
 21
10.9375
 31
0.0
  0
LINE
  8
0
 62
     0
  5
34C
 10
9.65625
 20
10.9375
 30
0.0
 11
9.65625
 21
10.9375
 31
0.0
  0
LINE
  8
0
 62
     0
  5
34D
 10
9.71875
 20
10.9375
 30
0.0
 11
9.71875
 21
10.9375
 31
0.0
  0
LINE
  8
0
 62
     0
  5
34E
 10
9.78125
 20
10.9375
 30
0.0
 11
9.78125
 21
10.9375
 31
0.0
  0
LINE
  8
0
 62
     0
  5
34F
 10
9.84375
 20
10.9375
 30
0.0
 11
9.84375
 21
10.9375
 31
0.0
  0
LINE
  8
0
 62
     0
  5
350
 10
9.90625
 20
10.9375
 30
0.0
 11
9.90625
 21
10.9375
 31
0.0
  0
LINE
  8
0
 62
     0
  5
351
 10
9.96875
 20
10.9375
 30
0.0
 11
9.96875
 21
10.9375
 31
0.0
  0
LINE
  8
0
 62
     0
  5
352
 10
9.375
 20
10.875
 30
0.0
 11
9.375
 21
10.875
 31
0.0
  0
LINE
  8
0
 62
     0
  5
353
 10
9.4375
 20
10.875
 30
0.0
 11
9.4375
 21
10.875
 31
0.0
  0
LINE
  8
0
 62
     0
  5
354
 10
9.5
 20
10.875
 30
0.0
 11
9.5
 21
10.875
 31
0.0
  0
LINE
  8
0
 62
     0
  5
355
 10
9.5625
 20
10.875
 30
0.0
 11
9.5625
 21
10.875
 31
0.0
  0
LINE
  8
0
 62
     0
  5
356
 10
9.625
 20
10.875
 30
0.0
 11
9.625
 21
10.875
 31
0.0
  0
LINE
  8
0
 62
     0
  5
357
 10
9.6875
 20
10.875
 30
0.0
 11
9.6875
 21
10.875
 31
0.0
  0
LINE
  8
0
 62
     0
  5
358
 10
9.75
 20
10.875
 30
0.0
 11
9.75
 21
10.875
 31
0.0
  0
LINE
  8
0
 62
     0
  5
359
 10
9.8125
 20
10.875
 30
0.0
 11
9.8125
 21
10.875
 31
0.0
  0
LINE
  8
0
 62
     0
  5
35A
 10
9.875
 20
10.875
 30
0.0
 11
9.875
 21
10.875
 31
0.0
  0
LINE
  8
0
 62
     0
  5
35B
 10
9.9375
 20
10.875
 30
0.0
 11
9.9375
 21
10.875
 31
0.0
  0
LINE
  8
0
 62
     0
  5
35C
 10
10.0
 20
10.875
 30
0.0
 11
10.0
 21
10.875
 31
0.0
  0
LINE
  8
0
 62
     0
  5
35D
 10
9.46875
 20
10.8125
 30
0.0
 11
9.46875
 21
10.8125
 31
0.0
  0
LINE
  8
0
 62
     0
  5
35E
 10
9.53125
 20
10.8125
 30
0.0
 11
9.53125
 21
10.8125
 31
0.0
  0
LINE
  8
0
 62
     0
  5
35F
 10
9.59375
 20
10.8125
 30
0.0
 11
9.59375
 21
10.8125
 31
0.0
  0
LINE
  8
0
 62
     0
  5
360
 10
9.65625
 20
10.8125
 30
0.0
 11
9.65625
 21
10.8125
 31
0.0
  0
LINE
  8
0
 62
     0
  5
361
 10
9.71875
 20
10.8125
 30
0.0
 11
9.71875
 21
10.8125
 31
0.0
  0
LINE
  8
0
 62
     0
  5
362
 10
9.78125
 20
10.8125
 30
0.0
 11
9.78125
 21
10.8125
 31
0.0
  0
LINE
  8
0
 62
     0
  5
363
 10
9.84375
 20
10.8125
 30
0.0
 11
9.84375
 21
10.8125
 31
0.0
  0
LINE
  8
0
 62
     0
  5
364
 10
9.90625
 20
10.8125
 30
0.0
 11
9.90625
 21
10.8125
 31
0.0
  0
LINE
  8
0
 62
     0
  5
365
 10
9.96875
 20
10.8125
 30
0.0
 11
9.96875
 21
10.8125
 31
0.0
  0
LINE
  8
0
 62
     0
  5
366
 10
9.5
 20
10.75
 30
0.0
 11
9.5
 21
10.75
 31
0.0
  0
LINE
  8
0
 62
     0
  5
367
 10
9.5625
 20
10.75
 30
0.0
 11
9.5625
 21
10.75
 31
0.0
  0
LINE
  8
0
 62
     0
  5
368
 10
9.625
 20
10.75
 30
0.0
 11
9.625
 21
10.75
 31
0.0
  0
LINE
  8
0
 62
     0
  5
369
 10
9.6875
 20
10.75
 30
0.0
 11
9.6875
 21
10.75
 31
0.0
  0
LINE
  8
0
 62
     0
  5
36A
 10
9.75
 20
10.75
 30
0.0
 11
9.75
 21
10.75
 31
0.0
  0
LINE
  8
0
 62
     0
  5
36B
 10
9.8125
 20
10.75
 30
0.0
 11
9.8125
 21
10.75
 31
0.0
  0
LINE
  8
0
 62
     0
  5
36C
 10
9.875
 20
10.75
 30
0.0
 11
9.875
 21
10.75
 31
0.0
  0
LINE
  8
0
 62
     0
  5
36D
 10
9.9375
 20
10.75
 30
0.0
 11
9.9375
 21
10.75
 31
0.0
  0
LINE
  8
0
 62
     0
  5
36E
 10
10.0
 20
10.75
 30
0.0
 11
10.0
 21
10.75
 31
0.0
  0
LINE
  8
0
 62
     0
  5
36F
 10
9.53125
 20
10.6875
 30
0.0
 11
9.53125
 21
10.6875
 31
0.0
  0
LINE
  8
0
 62
     0
  5
370
 10
9.59375
 20
10.6875
 30
0.0
 11
9.59375
 21
10.6875
 31
0.0
  0
LINE
  8
0
 62
     0
  5
371
 10
9.65625
 20
10.6875
 30
0.0
 11
9.65625
 21
10.6875
 31
0.0
  0
LINE
  8
0
 62
     0
  5
372
 10
9.71875
 20
10.6875
 30
0.0
 11
9.71875
 21
10.6875
 31
0.0
  0
LINE
  8
0
 62
     0
  5
373
 10
9.78125
 20
10.6875
 30
0.0
 11
9.78125
 21
10.6875
 31
0.0
  0
LINE
  8
0
 62
     0
  5
374
 10
9.84375
 20
10.6875
 30
0.0
 11
9.84375
 21
10.6875
 31
0.0
  0
LINE
  8
0
 62
     0
  5
375
 10
9.90625
 20
10.6875
 30
0.0
 11
9.90625
 21
10.6875
 31
0.0
  0
LINE
  8
0
 62
     0
  5
376
 10
9.96875
 20
10.6875
 30
0.0
 11
9.96875
 21
10.6875
 31
0.0
  0
LINE
  8
0
 62
     0
  5
377
 10
9.5625
 20
10.625
 30
0.0
 11
9.5625
 21
10.625
 31
0.0
  0
LINE
  8
0
 62
     0
  5
378
 10
9.625
 20
10.625
 30
0.0
 11
9.625
 21
10.625
 31
0.0
  0
LINE
  8
0
 62
     0
  5
379
 10
9.6875
 20
10.625
 30
0.0
 11
9.6875
 21
10.625
 31
0.0
  0
LINE
  8
0
 62
     0
  5
37A
 10
9.75
 20
10.625
 30
0.0
 11
9.75
 21
10.625
 31
0.0
  0
LINE
  8
0
 62
     0
  5
37B
 10
9.8125
 20
10.625
 30
0.0
 11
9.8125
 21
10.625
 31
0.0
  0
LINE
  8
0
 62
     0
  5
37C
 10
9.875
 20
10.625
 30
0.0
 11
9.875
 21
10.625
 31
0.0
  0
LINE
  8
0
 62
     0
  5
37D
 10
9.9375
 20
10.625
 30
0.0
 11
9.9375
 21
10.625
 31
0.0
  0
LINE
  8
0
 62
     0
  5
37E
 10
10.0
 20
10.625
 30
0.0
 11
10.0
 21
10.625
 31
0.0
  0
LINE
  8
0
 62
     0
  5
37F
 10
9.59375
 20
10.5625
 30
0.0
 11
9.59375
 21
10.5625
 31
0.0
  0
LINE
  8
0
 62
     0
  5
380
 10
9.65625
 20
10.5625
 30
0.0
 11
9.65625
 21
10.5625
 31
0.0
  0
LINE
  8
0
 62
     0
  5
381
 10
9.71875
 20
10.5625
 30
0.0
 11
9.71875
 21
10.5625
 31
0.0
  0
LINE
  8
0
 62
     0
  5
382
 10
9.78125
 20
10.5625
 30
0.0
 11
9.78125
 21
10.5625
 31
0.0
  0
LINE
  8
0
 62
     0
  5
383
 10
9.84375
 20
10.5625
 30
0.0
 11
9.84375
 21
10.5625
 31
0.0
  0
LINE
  8
0
 62
     0
  5
384
 10
9.90625
 20
10.5625
 30
0.0
 11
9.90625
 21
10.5625
 31
0.0
  0
LINE
  8
0
 62
     0
  5
385
 10
9.96875
 20
10.5625
 30
0.0
 11
9.96875
 21
10.5625
 31
0.0
  0
LINE
  8
0
 62
     0
  5
386
 10
9.6875
 20
10.5
 30
0.0
 11
9.6875
 21
10.5
 31
0.0
  0
LINE
  8
0
 62
     0
  5
387
 10
9.75
 20
10.5
 30
0.0
 11
9.75
 21
10.5
 31
0.0
  0
LINE
  8
0
 62
     0
  5
388
 10
9.8125
 20
10.5
 30
0.0
 11
9.8125
 21
10.5
 31
0.0
  0
LINE
  8
0
 62
     0
  5
389
 10
9.875
 20
10.5
 30
0.0
 11
9.875
 21
10.5
 31
0.0
  0
LINE
  8
0
 62
     0
  5
38A
 10
9.9375
 20
10.5
 30
0.0
 11
9.9375
 21
10.5
 31
0.0
  0
LINE
  8
0
 62
     0
  5
38B
 10
10.0
 20
10.5
 30
0.0
 11
10.0
 21
10.5
 31
0.0
  0
LINE
  8
0
 62
     0
  5
38C
 10
9.71875
 20
10.4375
 30
0.0
 11
9.71875
 21
10.4375
 31
0.0
  0
LINE
  8
0
 62
     0
  5
38D
 10
9.78125
 20
10.4375
 30
0.0
 11
9.78125
 21
10.4375
 31
0.0
  0
LINE
  8
0
 62
     0
  5
38E
 10
9.84375
 20
10.4375
 30
0.0
 11
9.84375
 21
10.4375
 31
0.0
  0
LINE
  8
0
 62
     0
  5
38F
 10
9.90625
 20
10.4375
 30
0.0
 11
9.90625
 21
10.4375
 31
0.0
  0
LINE
  8
0
 62
     0
  5
390
 10
9.96875
 20
10.4375
 30
0.0
 11
9.96875
 21
10.4375
 31
0.0
  0
LINE
  8
0
 62
     0
  5
391
 10
9.75
 20
10.375
 30
0.0
 11
9.75
 21
10.375
 31
0.0
  0
LINE
  8
0
 62
     0
  5
392
 10
9.8125
 20
10.375
 30
0.0
 11
9.8125
 21
10.375
 31
0.0
  0
LINE
  8
0
 62
     0
  5
393
 10
9.875
 20
10.375
 30
0.0
 11
9.875
 21
10.375
 31
0.0
  0
LINE
  8
0
 62
     0
  5
394
 10
9.9375
 20
10.375
 30
0.0
 11
9.9375
 21
10.375
 31
0.0
  0
LINE
  8
0
 62
     0
  5
395
 10
10.0
 20
10.375
 30
0.0
 11
10.0
 21
10.375
 31
0.0
  0
LINE
  8
0
 62
     0
  5
396
 10
9.78125
 20
10.3125
 30
0.0
 11
9.78125
 21
10.3125
 31
0.0
  0
LINE
  8
0
 62
     0
  5
397
 10
9.84375
 20
10.3125
 30
0.0
 11
9.84375
 21
10.3125
 31
0.0
  0
LINE
  8
0
 62
     0
  5
398
 10
9.90625
 20
10.3125
 30
0.0
 11
9.90625
 21
10.3125
 31
0.0
  0
LINE
  8
0
 62
     0
  5
399
 10
9.96875
 20
10.3125
 30
0.0
 11
9.96875
 21
10.3125
 31
0.0
  0
LINE
  8
0
 62
     0
  5
39A
 10
9.875
 20
10.25
 30
0.0
 11
9.875
 21
10.25
 31
0.0
  0
LINE
  8
0
 62
     0
  5
39B
 10
9.9375
 20
10.25
 30
0.0
 11
9.9375
 21
10.25
 31
0.0
  0
LINE
  8
0
 62
     0
  5
39C
 10
10.0
 20
10.25
 30
0.0
 11
10.0
 21
10.25
 31
0.0
  0
LINE
  8
0
 62
     0
  5
39D
 10
9.90625
 20
10.1875
 30
0.0
 11
9.90625
 21
10.1875
 31
0.0
  0
LINE
  8
0
 62
     0
  5
39E
 10
9.96875
 20
10.1875
 30
0.0
 11
9.96875
 21
10.1875
 31
0.0
  0
LINE
  8
0
 62
     0
  5
39F
 10
9.9375
 20
10.125
 30
0.0
 11
9.9375
 21
10.125
 31
0.0
  0
LINE
  8
0
 62
     0
  5
3A0
 10
10.0
 20
10.125
 30
0.0
 11
10.0
 21
10.125
 31
0.0
  0
LINE
  8
0
 62
     0
  5
3A1
 10
9.96875
 20
10.0625
 30
0.0
 11
9.96875
 21
10.0625
 31
0.0
  0
ENDBLK
  8
0
  5
3A2
  0
BLOCK
  8
0
  5
3A3
  2
*X2
 70
    65
 10
0.0
 20
0.0
 30
0.0
  1
AVE_RENDER
  3
*X
  0
LINE
  8
0
 62
     0
  5
3A5
 10
8.5625
 20
8.0
 30
0.0
 11
8.5625
 21
8.0
 31
0.0
  0
LINE
  8
0
 62
     0
  5
3A6
 10
8.59375
 20
8.0625
 30
0.0
 11
8.59375
 21
8.0625
 31
0.0
  0
LINE
  8
0
 62
     0
  5
3A7
 10
8.65625
 20
8.0625
 30
0.0
 11
8.65625
 21
8.0625
 31
0.0
  0
LINE
  8
0
 62
     0
  5
3A8
 10
8.6875
 20
8.125
 30
0.0
 11
8.6875
 21
8.125
 31
0.0
  0
LINE
  8
0
 62
     0
  5
3A9
 10
8.75
 20
8.125
 30
0.0
 11
8.75
 21
8.125
 31
0.0
  0
LINE
  8
0
 62
     0
  5
3AA
 10
11.375
 20
8.125
 30
0.0
 11
11.375
 21
8.125
 31
0.0
  0
LINE
  8
0
 62
     0
  5
3AB
 10
11.4375
 20
8.125
 30
0.0
 11
11.4375
 21
8.125
 31
0.0
  0
LINE
  8
0
 62
     0
  5
3AC
 10
8.71875
 20
8.1875
 30
0.0
 11
8.71875
 21
8.1875
 31
0.0
  0
LINE
  8
0
 62
     0
  5
3AD
 10
8.78125
 20
8.1875
 30
0.0
 11
8.78125
 21
8.1875
 31
0.0
  0
LINE
  8
0
 62
     0
  5
3AE
 10
8.84375
 20
8.1875
 30
0.0
 11
8.84375
 21
8.1875
 31
0.0
  0
LINE
  8
0
 62
     0
  5
3AF
 10
8.90625
 20
8.1875
 30
0.0
 11
8.90625
 21
8.1875
 31
0.0
  0
LINE
  8
0
 62
     0
  5
3B0
 10
11.34375
 20
8.1875
 30
0.0
 11
11.34375
 21
8.1875
 31
0.0
  0
LINE
  8
0
 62
     0
  5
3B1
 10
11.40625
 20
8.1875
 30
0.0
 11
11.40625
 21
8.1875
 31
0.0
  0
LINE
  8
0
 62
     0
  5
3B2
 10
8.75
 20
8.25
 30
0.0
 11
8.75
 21
8.25
 31
0.0
  0
LINE
  8
0
 62
     0
  5
3B3
 10
8.8125
 20
8.25
 30
0.0
 11
8.8125
 21
8.25
 31
0.0
  0
LINE
  8
0
 62
     0
  5
3B4
 10
8.875
 20
8.25
 30
0.0
 11
8.875
 21
8.25
 31
0.0
  0
LINE
  8
0
 62
     0
  5
3B5
 10
8.9375
 20
8.25
 30
0.0
 11
8.9375
 21
8.25
 31
0.0
  0
LINE
  8
0
 62
     0
  5
3B6
 10
9.0
 20
8.25
 30
0.0
 11
9.0
 21
8.25
 31
0.0
  0
LINE
  8
0
 62
     0
  5
3B7
 10
11.3125
 20
8.25
 30
0.0
 11
11.3125
 21
8.25
 31
0.0
  0
LINE
  8
0
 62
     0
  5
3B8
 10
11.375
 20
8.25
 30
0.0
 11
11.375
 21
8.25
 31
0.0
  0
LINE
  8
0
 62
     0
  5
3B9
 10
8.78125
 20
8.3125
 30
0.0
 11
8.78125
 21
8.3125
 31
0.0
  0
LINE
  8
0
 62
     0
  5
3BA
 10
8.84375
 20
8.3125
 30
0.0
 11
8.84375
 21
8.3125
 31
0.0
  0
LINE
  8
0
 62
     0
  5
3BB
 10
8.90625
 20
8.3125
 30
0.0
 11
8.90625
 21
8.3125
 31
0.0
  0
LINE
  8
0
 62
     0
  5
3BC
 10
8.96875
 20
8.3125
 30
0.0
 11
8.96875
 21
8.3125
 31
0.0
  0
LINE
  8
0
 62
     0
  5
3BD
 10
9.03125
 20
8.3125
 30
0.0
 11
9.03125
 21
8.3125
 31
0.0
  0
LINE
  8
0
 62
     0
  5
3BE
 10
9.09375
 20
8.3125
 30
0.0
 11
9.09375
 21
8.3125
 31
0.0
  0
LINE
  8
0
 62
     0
  5
3BF
 10
9.15625
 20
8.3125
 30
0.0
 11
9.15625
 21
8.3125
 31
0.0
  0
LINE
  8
0
 62
     0
  5
3C0
 10
11.28125
 20
8.3125
 30
0.0
 11
11.28125
 21
8.3125
 31
0.0
  0
LINE
  8
0
 62
     0
  5
3C1
 10
11.34375
 20
8.3125
 30
0.0
 11
11.34375
 21
8.3125
 31
0.0
  0
LINE
  8
0
 62
     0
  5
3C2
 10
11.40625
 20
8.3125
 30
0.0
 11
11.40625
 21
8.3125
 31
0.0
  0
LINE
  8
0
 62
     0
  5
3C3
 10
8.875
 20
8.375
 30
0.0
 11
8.875
 21
8.375
 31
0.0
  0
LINE
  8
0
 62
     0
  5
3C4
 10
8.9375
 20
8.375
 30
0.0
 11
8.9375
 21
8.375
 31
0.0
  0
LINE
  8
0
 62
     0
  5
3C5
 10
9.0
 20
8.375
 30
0.0
 11
9.0
 21
8.375
 31
0.0
  0
LINE
  8
0
 62
     0
  5
3C6
 10
9.0625
 20
8.375
 30
0.0
 11
9.0625
 21
8.375
 31
0.0
  0
LINE
  8
0
 62
     0
  5
3C7
 10
9.125
 20
8.375
 30
0.0
 11
9.125
 21
8.375
 31
0.0
  0
LINE
  8
0
 62
     0
  5
3C8
 10
9.1875
 20
8.375
 30
0.0
 11
9.1875
 21
8.375
 31
0.0
  0
LINE
  8
0
 62
     0
  5
3C9
 10
9.25
 20
8.375
 30
0.0
 11
9.25
 21
8.375
 31
0.0
  0
LINE
  8
0
 62
     0
  5
3CA
 10
11.1875
 20
8.375
 30
0.0
 11
11.1875
 21
8.375
 31
0.0
  0
LINE
  8
0
 62
     0
  5
3CB
 10
11.25
 20
8.375
 30
0.0
 11
11.25
 21
8.375
 31
0.0
  0
LINE
  8
0
 62
     0
  5
3CC
 10
11.3125
 20
8.375
 30
0.0
 11
11.3125
 21
8.375
 31
0.0
  0
LINE
  8
0
 62
     0
  5
3CD
 10
11.375
 20
8.375
 30
0.0
 11
11.375
 21
8.375
 31
0.0
  0
LINE
  8
0
 62
     0
  5
3CE
 10
8.90625
 20
8.4375
 30
0.0
 11
8.90625
 21
8.4375
 31
0.0
  0
LINE
  8
0
 62
     0
  5
3CF
 10
8.96875
 20
8.4375
 30
0.0
 11
8.96875
 21
8.4375
 31
0.0
  0
LINE
  8
0
 62
     0
  5
3D0
 10
9.03125
 20
8.4375
 30
0.0
 11
9.03125
 21
8.4375
 31
0.0
  0
LINE
  8
0
 62
     0
  5
3D1
 10
9.09375
 20
8.4375
 30
0.0
 11
9.09375
 21
8.4375
 31
0.0
  0
LINE
  8
0
 62
     0
  5
3D2
 10
9.15625
 20
8.4375
 30
0.0
 11
9.15625
 21
8.4375
 31
0.0
  0
LINE
  8
0
 62
     0
  5
3D3
 10
9.21875
 20
8.4375
 30
0.0
 11
9.21875
 21
8.4375
 31
0.0
  0
LINE
  8
0
 62
     0
  5
3D4
 10
9.28125
 20
8.4375
 30
0.0
 11
9.28125
 21
8.4375
 31
0.0
  0
LINE
  8
0
 62
     0
  5
3D5
 10
9.34375
 20
8.4375
 30
0.0
 11
9.34375
 21
8.4375
 31
0.0
  0
LINE
  8
0
 62
     0
  5
3D6
 10
11.15625
 20
8.4375
 30
0.0
 11
11.15625
 21
8.4375
 31
0.0
  0
LINE
  8
0
 62
     0
  5
3D7
 10
11.21875
 20
8.4375
 30
0.0
 11
11.21875
 21
8.4375
 31
0.0
  0
LINE
  8
0
 62
     0
  5
3D8
 10
11.28125
 20
8.4375
 30
0.0
 11
11.28125
 21
8.4375
 31
0.0
  0
LINE
  8
0
 62
     0
  5
3D9
 10
11.34375
 20
8.4375
 30
0.0
 11
11.34375
 21
8.4375
 31
0.0
  0
LINE
  8
0
 62
     0
  5
3DA
 10
8.9375
 20
8.5
 30
0.0
 11
8.9375
 21
8.5
 31
0.0
  0
LINE
  8
0
 62
     0
  5
3DB
 10
9.0
 20
8.5
 30
0.0
 11
9.0
 21
8.5
 31
0.0
  0
LINE
  8
0
 62
     0
  5
3DC
 10
9.0625
 20
8.5
 30
0.0
 11
9.0625
 21
8.5
 31
0.0
  0
LINE
  8
0
 62
     0
  5
3DD
 10
9.125
 20
8.5
 30
0.0
 11
9.125
 21
8.5
 31
0.0
  0
LINE
  8
0
 62
     0
  5
3DE
 10
9.1875
 20
8.5
 30
0.0
 11
9.1875
 21
8.5
 31
0.0
  0
LINE
  8
0
 62
     0
  5
3DF
 10
9.25
 20
8.5
 30
0.0
 11
9.25
 21
8.5
 31
0.0
  0
LINE
  8
0
 62
     0
  5
3E0
 10
9.3125
 20
8.5
 30
0.0
 11
9.3125
 21
8.5
 31
0.0
  0
LINE
  8
0
 62
     0
  5
3E1
 10
9.375
 20
8.5
 30
0.0
 11
9.375
 21
8.5
 31
0.0
  0
LINE
  8
0
 62
     0
  5
3E2
 10
9.4375
 20
8.5
 30
0.0
 11
9.4375
 21
8.5
 31
0.0
  0
LINE
  8
0
 62
     0
  5
3E3
 10
9.5
 20
8.5
 30
0.0
 11
9.5
 21
8.5
 31
0.0
  0
LINE
  8
0
 62
     0
  5
3E4
 10
11.125
 20
8.5
 30
0.0
 11
11.125
 21
8.5
 31
0.0
  0
LINE
  8
0
 62
     0
  5
3E5
 10
11.1875
 20
8.5
 30
0.0
 11
11.1875
 21
8.5
 31
0.0
  0
LINE
  8
0
 62
     0
  5
3E6
 10
11.25
 20
8.5
 30
0.0
 11
11.25
 21
8.5
 31
0.0
  0
LINE
  8
0
 62
     0
  5
3E7
 10
11.3125
 20
8.5
 30
0.0
 11
11.3125
 21
8.5
 31
0.0
  0
LINE
  8
0
 62
     0
  5
3E8
 10
11.375
 20
8.5
 30
0.0
 11
11.375
 21
8.5
 31
0.0
  0
LINE
  8
0
 62
     0
  5
3E9
 10
8.96875
 20
8.5625
 30
0.0
 11
8.96875
 21
8.5625
 31
0.0
  0
LINE
  8
0
 62
     0
  5
3EA
 10
9.03125
 20
8.5625
 30
0.0
 11
9.03125
 21
8.5625
 31
0.0
  0
LINE
  8
0
 62
     0
  5
3EB
 10
9.09375
 20
8.5625
 30
0.0
 11
9.09375
 21
8.5625
 31
0.0
  0
LINE
  8
0
 62
     0
  5
3EC
 10
9.15625
 20
8.5625
 30
0.0
 11
9.15625
 21
8.5625
 31
0.0
  0
LINE
  8
0
 62
     0
  5
3ED
 10
9.21875
 20
8.5625
 30
0.0
 11
9.21875
 21
8.5625
 31
0.0
  0
LINE
  8
0
 62
     0
  5
3EE
 10
9.28125
 20
8.5625
 30
0.0
 11
9.28125
 21
8.5625
 31
0.0
  0
LINE
  8
0
 62
     0
  5
3EF
 10
9.34375
 20
8.5625
 30
0.0
 11
9.34375
 21
8.5625
 31
0.0
  0
LINE
  8
0
 62
     0
  5
3F0
 10
9.40625
 20
8.5625
 30
0.0
 11
9.40625
 21
8.5625
 31
0.0
  0
LINE
  8
0
 62
     0
  5
3F1
 10
9.46875
 20
8.5625
 30
0.0
 11
9.46875
 21
8.5625
 31
0.0
  0
LINE
  8
0
 62
     0
  5
3F2
 10
9.53125
 20
8.5625
 30
0.0
 11
9.53125
 21
8.5625
 31
0.0
  0
LINE
  8
0
 62
     0
  5
3F3
 10
9.59375
 20
8.5625
 30
0.0
 11
9.59375
 21
8.5625
 31
0.0
  0
LINE
  8
0
 62
     0
  5
3F4
 10
11.09375
 20
8.5625
 30
0.0
 11
11.09375
 21
8.5625
 31
0.0
  0
LINE
  8
0
 62
     0
  5
3F5
 10
11.15625
 20
8.5625
 30
0.0
 11
11.15625
 21
8.5625
 31
0.0
  0
LINE
  8
0
 62
     0
  5
3F6
 10
11.21875
 20
8.5625
 30
0.0
 11
11.21875
 21
8.5625
 31
0.0
  0
LINE
  8
0
 62
     0
  5
3F7
 10
11.28125
 20
8.5625
 30
0.0
 11
11.28125
 21
8.5625
 31
0.0
  0
LINE
  8
0
 62
     0
  5
3F8
 10
11.34375
 20
8.5625
 30
0.0
 11
11.34375
 21
8.5625
 31
0.0
  0
LINE
  8
0
 62
     0
  5
3F9
 10
9.0625
 20
8.625
 30
0.0
 11
9.0625
 21
8.625
 31
0.0
  0
LINE
  8
0
 62
     0
  5
3FA
 10
9.125
 20
8.625
 30
0.0
 11
9.125
 21
8.625
 31
0.0
  0
LINE
  8
0
 62
     0
  5
3FB
 10
9.1875
 20
8.625
 30
0.0
 11
9.1875
 21
8.625
 31
0.0
  0
LINE
  8
0
 62
     0
  5
3FC
 10
9.25
 20
8.625
 30
0.0
 11
9.25
 21
8.625
 31
0.0
  0
LINE
  8
0
 62
     0
  5
3FD
 10
9.3125
 20
8.625
 30
0.0
 11
9.3125
 21
8.625
 31
0.0
  0
LINE
  8
0
 62
     0
  5
3FE
 10
9.375
 20
8.625
 30
0.0
 11
9.375
 21
8.625
 31
0.0
  0
LINE
  8
0
 62
     0
  5
3FF
 10
9.4375
 20
8.625
 30
0.0
 11
9.4375
 21
8.625
 31
0.0
  0
LINE
  8
0
 62
     0
  5
400
 10
9.5
 20
8.625
 30
0.0
 11
9.5
 21
8.625
 31
0.0
  0
LINE
  8
0
 62
     0
  5
401
 10
9.5625
 20
8.625
 30
0.0
 11
9.5625
 21
8.625
 31
0.0
  0
LINE
  8
0
 62
     0
  5
402
 10
9.625
 20
8.625
 30
0.0
 11
9.625
 21
8.625
 31
0.0
  0
LINE
  8
0
 62
     0
  5
403
 10
9.6875
 20
8.625
 30
0.0
 11
9.6875
 21
8.625
 31
0.0
  0
LINE
  8
0
 62
     0
  5
404
 10
9.75
 20
8.625
 30
0.0
 11
9.75
 21
8.625
 31
0.0
  0
LINE
  8
0
 62
     0
  5
405
 10
11.0
 20
8.625
 30
0.0
 11
11.0
 21
8.625
 31
0.0
  0
LINE
  8
0
 62
     0
  5
406
 10
11.0625
 20
8.625
 30
0.0
 11
11.0625
 21
8.625
 31
0.0
  0
LINE
  8
0
 62
     0
  5
407
 10
11.125
 20
8.625
 30
0.0
 11
11.125
 21
8.625
 31
0.0
  0
LINE
  8
0
 62
     0
  5
408
 10
11.1875
 20
8.625
 30
0.0
 11
11.1875
 21
8.625
 31
0.0
  0
LINE
  8
0
 62
     0
  5
409
 10
11.25
 20
8.625
 30
0.0
 11
11.25
 21
8.625
 31
0.0
  0
LINE
  8
0
 62
     0
  5
40A
 10
11.3125
 20
8.625
 30
0.0
 11
11.3125
 21
8.625
 31
0.0
  0
LINE
  8
0
 62
     0
  5
40B
 10
9.09375
 20
8.6875
 30
0.0
 11
9.09375
 21
8.6875
 31
0.0
  0
LINE
  8
0
 62
     0
  5
40C
 10
9.15625
 20
8.6875
 30
0.0
 11
9.15625
 21
8.6875
 31
0.0
  0
LINE
  8
0
 62
     0
  5
40D
 10
9.21875
 20
8.6875
 30
0.0
 11
9.21875
 21
8.6875
 31
0.0
  0
LINE
  8
0
 62
     0
  5
40E
 10
9.28125
 20
8.6875
 30
0.0
 11
9.28125
 21
8.6875
 31
0.0
  0
LINE
  8
0
 62
     0
  5
40F
 10
9.34375
 20
8.6875
 30
0.0
 11
9.34375
 21
8.6875
 31
0.0
  0
LINE
  8
0
 62
     0
  5
410
 10
9.40625
 20
8.6875
 30
0.0
 11
9.40625
 21
8.6875
 31
0.0
  0
LINE
  8
0
 62
     0
  5
411
 10
9.46875
 20
8.6875
 30
0.0
 11
9.46875
 21
8.6875
 31
0.0
  0
LINE
  8
0
 62
     0
  5
412
 10
9.53125
 20
8.6875
 30
0.0
 11
9.53125
 21
8.6875
 31
0.0
  0
LINE
  8
0
 62
     0
  5
413
 10
9.59375
 20
8.6875
 30
0.0
 11
9.59375
 21
8.6875
 31
0.0
  0
LINE
  8
0
 62
     0
  5
414
 10
9.65625
 20
8.6875
 30
0.0
 11
9.65625
 21
8.6875
 31
0.0
  0
LINE
  8
0
 62
     0
  5
415
 10
9.71875
 20
8.6875
 30
0.0
 11
9.71875
 21
8.6875
 31
0.0
  0
LINE
  8
0
 62
     0
  5
416
 10
9.78125
 20
8.6875
 30
0.0
 11
9.78125
 21
8.6875
 31
0.0
  0
LINE
  8
0
 62
     0
  5
417
 10
9.84375
 20
8.6875
 30
0.0
 11
9.84375
 21
8.6875
 31
0.0
  0
LINE
  8
0
 62
     0
  5
418
 10
10.96875
 20
8.6875
 30
0.0
 11
10.96875
 21
8.6875
 31
0.0
  0
LINE
  8
0
 62
     0
  5
419
 10
11.03125
 20
8.6875
 30
0.0
 11
11.03125
 21
8.6875
 31
0.0
  0
LINE
  8
0
 62
     0
  5
41A
 10
11.09375
 20
8.6875
 30
0.0
 11
11.09375
 21
8.6875
 31
0.0
  0
LINE
  8
0
 62
     0
  5
41B
 10
11.15625
 20
8.6875
 30
0.0
 11
11.15625
 21
8.6875
 31
0.0
  0
LINE
  8
0
 62
     0
  5
41C
 10
11.21875
 20
8.6875
 30
0.0
 11
11.21875
 21
8.6875
 31
0.0
  0
LINE
  8
0
 62
     0
  5
41D
 10
11.28125
 20
8.6875
 30
0.0
 11
11.28125
 21
8.6875
 31
0.0
  0
LINE
  8
0
 62
     0
  5
41E
 10
11.34375
 20
8.6875
 30
0.0
 11
11.34375
 21
8.6875
 31
0.0
  0
LINE
  8
0
 62
     0
  5
41F
 10
9.125
 20
8.75
 30
0.0
 11
9.125
 21
8.75
 31
0.0
  0
LINE
  8
0
 62
     0
  5
420
 10
9.1875
 20
8.75
 30
0.0
 11
9.1875
 21
8.75
 31
0.0
  0
LINE
  8
0
 62
     0
  5
421
 10
9.25
 20
8.75
 30
0.0
 11
9.25
 21
8.75
 31
0.0
  0
LINE
  8
0
 62
     0
  5
422
 10
9.3125
 20
8.75
 30
0.0
 11
9.3125
 21
8.75
 31
0.0
  0
LINE
  8
0
 62
     0
  5
423
 10
9.375
 20
8.75
 30
0.0
 11
9.375
 21
8.75
 31
0.0
  0
LINE
  8
0
 62
     0
  5
424
 10
9.4375
 20
8.75
 30
0.0
 11
9.4375
 21
8.75
 31
0.0
  0
LINE
  8
0
 62
     0
  5
425
 10
9.5
 20
8.75
 30
0.0
 11
9.5
 21
8.75
 31
0.0
  0
LINE
  8
0
 62
     0
  5
426
 10
9.5625
 20
8.75
 30
0.0
 11
9.5625
 21
8.75
 31
0.0
  0
LINE
  8
0
 62
     0
  5
427
 10
9.625
 20
8.75
 30
0.0
 11
9.625
 21
8.75
 31
0.0
  0
LINE
  8
0
 62
     0
  5
428
 10
9.6875
 20
8.75
 30
0.0
 11
9.6875
 21
8.75
 31
0.0
  0
LINE
  8
0
 62
     0
  5
429
 10
9.75
 20
8.75
 30
0.0
 11
9.75
 21
8.75
 31
0.0
  0
LINE
  8
0
 62
     0
  5
42A
 10
9.8125
 20
8.75
 30
0.0
 11
9.8125
 21
8.75
 31
0.0
  0
LINE
  8
0
 62
     0
  5
42B
 10
9.875
 20
8.75
 30
0.0
 11
9.875
 21
8.75
 31
0.0
  0
LINE
  8
0
 62
     0
  5
42C
 10
9.9375
 20
8.75
 30
0.0
 11
9.9375
 21
8.75
 31
0.0
  0
LINE
  8
0
 62
     0
  5
42D
 10
10.0
 20
8.75
 30
0.0
 11
10.0
 21
8.75
 31
0.0
  0
LINE
  8
0
 62
     0
  5
42E
 10
10.9375
 20
8.75
 30
0.0
 11
10.9375
 21
8.75
 31
0.0
  0
LINE
  8
0
 62
     0
  5
42F
 10
11.0
 20
8.75
 30
0.0
 11
11.0
 21
8.75
 31
0.0
  0
LINE
  8
0
 62
     0
  5
430
 10
11.0625
 20
8.75
 30
0.0
 11
11.0625
 21
8.75
 31
0.0
  0
LINE
  8
0
 62
     0
  5
431
 10
11.125
 20
8.75
 30
0.0
 11
11.125
 21
8.75
 31
0.0
  0
LINE
  8
0
 62
     0
  5
432
 10
11.1875
 20
8.75
 30
0.0
 11
11.1875
 21
8.75
 31
0.0
  0
LINE
  8
0
 62
     0
  5
433
 10
11.25
 20
8.75
 30
0.0
 11
11.25
 21
8.75
 31
0.0
  0
LINE
  8
0
 62
     0
  5
434
 10
11.3125
 20
8.75
 30
0.0
 11
11.3125
 21
8.75
 31
0.0
  0
LINE
  8
0
 62
     0
  5
435
 10
9.15625
 20
8.8125
 30
0.0
 11
9.15625
 21
8.8125
 31
0.0
  0
LINE
  8
0
 62
     0
  5
436
 10
9.21875
 20
8.8125
 30
0.0
 11
9.21875
 21
8.8125
 31
0.0
  0
LINE
  8
0
 62
     0
  5
437
 10
9.28125
 20
8.8125
 30
0.0
 11
9.28125
 21
8.8125
 31
0.0
  0
LINE
  8
0
 62
     0
  5
438
 10
9.34375
 20
8.8125
 30
0.0
 11
9.34375
 21
8.8125
 31
0.0
  0
LINE
  8
0
 62
     0
  5
439
 10
9.40625
 20
8.8125
 30
0.0
 11
9.40625
 21
8.8125
 31
0.0
  0
LINE
  8
0
 62
     0
  5
43A
 10
9.46875
 20
8.8125
 30
0.0
 11
9.46875
 21
8.8125
 31
0.0
  0
LINE
  8
0
 62
     0
  5
43B
 10
9.53125
 20
8.8125
 30
0.0
 11
9.53125
 21
8.8125
 31
0.0
  0
LINE
  8
0
 62
     0
  5
43C
 10
9.59375
 20
8.8125
 30
0.0
 11
9.59375
 21
8.8125
 31
0.0
  0
LINE
  8
0
 62
     0
  5
43D
 10
9.65625
 20
8.8125
 30
0.0
 11
9.65625
 21
8.8125
 31
0.0
  0
LINE
  8
0
 62
     0
  5
43E
 10
9.71875
 20
8.8125
 30
0.0
 11
9.71875
 21
8.8125
 31
0.0
  0
LINE
  8
0
 62
     0
  5
43F
 10
9.78125
 20
8.8125
 30
0.0
 11
9.78125
 21
8.8125
 31
0.0
  0
LINE
  8
0
 62
     0
  5
440
 10
9.84375
 20
8.8125
 30
0.0
 11
9.84375
 21
8.8125
 31
0.0
  0
LINE
  8
0
 62
     0
  5
441
 10
9.90625
 20
8.8125
 30
0.0
 11
9.90625
 21
8.8125
 31
0.0
  0
LINE
  8
0
 62
     0
  5
442
 10
9.96875
 20
8.8125
 30
0.0
 11
9.96875
 21
8.8125
 31
0.0
  0
LINE
  8
0
 62
     0
  5
443
 10
10.90625
 20
8.8125
 30
0.0
 11
10.90625
 21
8.8125
 31
0.0
  0
LINE
  8
0
 62
     0
  5
444
 10
10.96875
 20
8.8125
 30
0.0
 11
10.96875
 21
8.8125
 31
0.0
  0
LINE
  8
0
 62
     0
  5
445
 10
11.03125
 20
8.8125
 30
0.0
 11
11.03125
 21
8.8125
 31
0.0
  0
LINE
  8
0
 62
     0
  5
446
 10
11.09375
 20
8.8125
 30
0.0
 11
11.09375
 21
8.8125
 31
0.0
  0
LINE
  8
0
 62
     0
  5
447
 10
11.15625
 20
8.8125
 30
0.0
 11
11.15625
 21
8.8125
 31
0.0
  0
LINE
  8
0
 62
     0
  5
448
 10
11.21875
 20
8.8125
 30
0.0
 11
11.21875
 21
8.8125
 31
0.0
  0
LINE
  8
0
 62
     0
  5
449
 10
11.28125
 20
8.8125
 30
0.0
 11
11.28125
 21
8.8125
 31
0.0
  0
LINE
  8
0
 62
     0
  5
44A
 10
9.1875
 20
8.875
 30
0.0
 11
9.1875
 21
8.875
 31
0.0
  0
LINE
  8
0
 62
     0
  5
44B
 10
9.25
 20
8.875
 30
0.0
 11
9.25
 21
8.875
 31
0.0
  0
LINE
  8
0
 62
     0
  5
44C
 10
9.3125
 20
8.875
 30
0.0
 11
9.3125
 21
8.875
 31
0.0
  0
LINE
  8
0
 62
     0
  5
44D
 10
9.375
 20
8.875
 30
0.0
 11
9.375
 21
8.875
 31
0.0
  0
LINE
  8
0
 62
     0
  5
44E
 10
9.4375
 20
8.875
 30
0.0
 11
9.4375
 21
8.875
 31
0.0
  0
LINE
  8
0
 62
     0
  5
44F
 10
9.5
 20
8.875
 30
0.0
 11
9.5
 21
8.875
 31
0.0
  0
LINE
  8
0
 62
     0
  5
450
 10
9.5625
 20
8.875
 30
0.0
 11
9.5625
 21
8.875
 31
0.0
  0
LINE
  8
0
 62
     0
  5
451
 10
9.625
 20
8.875
 30
0.0
 11
9.625
 21
8.875
 31
0.0
  0
LINE
  8
0
 62
     0
  5
452
 10
9.6875
 20
8.875
 30
0.0
 11
9.6875
 21
8.875
 31
0.0
  0
LINE
  8
0
 62
     0
  5
453
 10
9.75
 20
8.875
 30
0.0
 11
9.75
 21
8.875
 31
0.0
  0
LINE
  8
0
 62
     0
  5
454
 10
9.8125
 20
8.875
 30
0.0
 11
9.8125
 21
8.875
 31
0.0
  0
LINE
  8
0
 62
     0
  5
455
 10
9.875
 20
8.875
 30
0.0
 11
9.875
 21
8.875
 31
0.0
  0
LINE
  8
0
 62
     0
  5
456
 10
9.9375
 20
8.875
 30
0.0
 11
9.9375
 21
8.875
 31
0.0
  0
LINE
  8
0
 62
     0
  5
457
 10
10.0
 20
8.875
 30
0.0
 11
10.0
 21
8.875
 31
0.0
  0
LINE
  8
0
 62
     0
  5
458
 10
10.875
 20
8.875
 30
0.0
 11
10.875
 21
8.875
 31
0.0
  0
LINE
  8
0
 62
     0
  5
459
 10
10.9375
 20
8.875
 30
0.0
 11
10.9375
 21
8.875
 31
0.0
  0
LINE
  8
0
 62
     0
  5
45A
 10
11.0
 20
8.875
 30
0.0
 11
11.0
 21
8.875
 31
0.0
  0
LINE
  8
0
 62
     0
  5
45B
 10
11.0625
 20
8.875
 30
0.0
 11
11.0625
 21
8.875
 31
0.0
  0
LINE
  8
0
 62
     0
  5
45C
 10
11.125
 20
8.875
 30
0.0
 11
11.125
 21
8.875
 31
0.0
  0
LINE
  8
0
 62
     0
  5
45D
 10
11.1875
 20
8.875
 30
0.0
 11
11.1875
 21
8.875
 31
0.0
  0
LINE
  8
0
 62
     0
  5
45E
 10
11.25
 20
8.875
 30
0.0
 11
11.25
 21
8.875
 31
0.0
  0
LINE
  8
0
 62
     0
  5
45F
 10
11.3125
 20
8.875
 30
0.0
 11
11.3125
 21
8.875
 31
0.0
  0
LINE
  8
0
 62
     0
  5
460
 10
9.28125
 20
8.9375
 30
0.0
 11
9.28125
 21
8.9375
 31
0.0
  0
LINE
  8
0
 62
     0
  5
461
 10
9.34375
 20
8.9375
 30
0.0
 11
9.34375
 21
8.9375
 31
0.0
  0
LINE
  8
0
 62
     0
  5
462
 10
9.40625
 20
8.9375
 30
0.0
 11
9.40625
 21
8.9375
 31
0.0
  0
LINE
  8
0
 62
     0
  5
463
 10
9.46875
 20
8.9375
 30
0.0
 11
9.46875
 21
8.9375
 31
0.0
  0
LINE
  8
0
 62
     0
  5
464
 10
9.53125
 20
8.9375
 30
0.0
 11
9.53125
 21
8.9375
 31
0.0
  0
LINE
  8
0
 62
     0
  5
465
 10
9.59375
 20
8.9375
 30
0.0
 11
9.59375
 21
8.9375
 31
0.0
  0
LINE
  8
0
 62
     0
  5
466
 10
9.65625
 20
8.9375
 30
0.0
 11
9.65625
 21
8.9375
 31
0.0
  0
LINE
  8
0
 62
     0
  5
467
 10
9.71875
 20
8.9375
 30
0.0
 11
9.71875
 21
8.9375
 31
0.0
  0
LINE
  8
0
 62
     0
  5
468
 10
9.78125
 20
8.9375
 30
0.0
 11
9.78125
 21
8.9375
 31
0.0
  0
LINE
  8
0
 62
     0
  5
469
 10
9.84375
 20
8.9375
 30
0.0
 11
9.84375
 21
8.9375
 31
0.0
  0
LINE
  8
0
 62
     0
  5
46A
 10
9.90625
 20
8.9375
 30
0.0
 11
9.90625
 21
8.9375
 31
0.0
  0
LINE
  8
0
 62
     0
  5
46B
 10
9.96875
 20
8.9375
 30
0.0
 11
9.96875
 21
8.9375
 31
0.0
  0
LINE
  8
0
 62
     0
  5
46C
 10
10.78125
 20
8.9375
 30
0.0
 11
10.78125
 21
8.9375
 31
0.0
  0
LINE
  8
0
 62
     0
  5
46D
 10
10.84375
 20
8.9375
 30
0.0
 11
10.84375
 21
8.9375
 31
0.0
  0
LINE
  8
0
 62
     0
  5
46E
 10
10.90625
 20
8.9375
 30
0.0
 11
10.90625
 21
8.9375
 31
0.0
  0
LINE
  8
0
 62
     0
  5
46F
 10
10.96875
 20
8.9375
 30
0.0
 11
10.96875
 21
8.9375
 31
0.0
  0
LINE
  8
0
 62
     0
  5
470
 10
11.03125
 20
8.9375
 30
0.0
 11
11.03125
 21
8.9375
 31
0.0
  0
LINE
  8
0
 62
     0
  5
471
 10
11.09375
 20
8.9375
 30
0.0
 11
11.09375
 21
8.9375
 31
0.0
  0
LINE
  8
0
 62
     0
  5
472
 10
11.15625
 20
8.9375
 30
0.0
 11
11.15625
 21
8.9375
 31
0.0
  0
LINE
  8
0
 62
     0
  5
473
 10
11.21875
 20
8.9375
 30
0.0
 11
11.21875
 21
8.9375
 31
0.0
  0
LINE
  8
0
 62
     0
  5
474
 10
11.28125
 20
8.9375
 30
0.0
 11
11.28125
 21
8.9375
 31
0.0
  0
LINE
  8
0
 62
     0
  5
475
 10
9.3125
 20
9.0
 30
0.0
 11
9.3125
 21
9.0
 31
0.0
  0
LINE
  8
0
 62
     0
  5
476
 10
9.375
 20
9.0
 30
0.0
 11
9.375
 21
9.0
 31
0.0
  0
LINE
  8
0
 62
     0
  5
477
 10
9.4375
 20
9.0
 30
0.0
 11
9.4375
 21
9.0
 31
0.0
  0
LINE
  8
0
 62
     0
  5
478
 10
9.5
 20
9.0
 30
0.0
 11
9.5
 21
9.0
 31
0.0
  0
LINE
  8
0
 62
     0
  5
479
 10
9.5625
 20
9.0
 30
0.0
 11
9.5625
 21
9.0
 31
0.0
  0
LINE
  8
0
 62
     0
  5
47A
 10
9.625
 20
9.0
 30
0.0
 11
9.625
 21
9.0
 31
0.0
  0
LINE
  8
0
 62
     0
  5
47B
 10
9.6875
 20
9.0
 30
0.0
 11
9.6875
 21
9.0
 31
0.0
  0
LINE
  8
0
 62
     0
  5
47C
 10
9.75
 20
9.0
 30
0.0
 11
9.75
 21
9.0
 31
0.0
  0
LINE
  8
0
 62
     0
  5
47D
 10
9.8125
 20
9.0
 30
0.0
 11
9.8125
 21
9.0
 31
0.0
  0
LINE
  8
0
 62
     0
  5
47E
 10
9.875
 20
9.0
 30
0.0
 11
9.875
 21
9.0
 31
0.0
  0
LINE
  8
0
 62
     0
  5
47F
 10
9.9375
 20
9.0
 30
0.0
 11
9.9375
 21
9.0
 31
0.0
  0
LINE
  8
0
 62
     0
  5
480
 10
10.0
 20
9.0
 30
0.0
 11
10.0
 21
9.0
 31
0.0
  0
LINE
  8
0
 62
     0
  5
481
 10
10.75
 20
9.0
 30
0.0
 11
10.75
 21
9.0
 31
0.0
  0
LINE
  8
0
 62
     0
  5
482
 10
10.8125
 20
9.0
 30
0.0
 11
10.8125
 21
9.0
 31
0.0
  0
LINE
  8
0
 62
     0
  5
483
 10
10.875
 20
9.0
 30
0.0
 11
10.875
 21
9.0
 31
0.0
  0
LINE
  8
0
 62
     0
  5
484
 10
10.9375
 20
9.0
 30
0.0
 11
10.9375
 21
9.0
 31
0.0
  0
LINE
  8
0
 62
     0
  5
485
 10
11.0
 20
9.0
 30
0.0
 11
11.0
 21
9.0
 31
0.0
  0
LINE
  8
0
 62
     0
  5
486
 10
11.0625
 20
9.0
 30
0.0
 11
11.0625
 21
9.0
 31
0.0
  0
LINE
  8
0
 62
     0
  5
487
 10
11.125
 20
9.0
 30
0.0
 11
11.125
 21
9.0
 31
0.0
  0
LINE
  8
0
 62
     0
  5
488
 10
11.1875
 20
9.0
 30
0.0
 11
11.1875
 21
9.0
 31
0.0
  0
LINE
  8
0
 62
     0
  5
489
 10
11.25
 20
9.0
 30
0.0
 11
11.25
 21
9.0
 31
0.0
  0
LINE
  8
0
 62
     0
  5
48A
 10
9.34375
 20
9.0625
 30
0.0
 11
9.34375
 21
9.0625
 31
0.0
  0
LINE
  8
0
 62
     0
  5
48B
 10
9.40625
 20
9.0625
 30
0.0
 11
9.40625
 21
9.0625
 31
0.0
  0
LINE
  8
0
 62
     0
  5
48C
 10
9.46875
 20
9.0625
 30
0.0
 11
9.46875
 21
9.0625
 31
0.0
  0
LINE
  8
0
 62
     0
  5
48D
 10
9.53125
 20
9.0625
 30
0.0
 11
9.53125
 21
9.0625
 31
0.0
  0
LINE
  8
0
 62
     0
  5
48E
 10
9.59375
 20
9.0625
 30
0.0
 11
9.59375
 21
9.0625
 31
0.0
  0
LINE
  8
0
 62
     0
  5
48F
 10
9.65625
 20
9.0625
 30
0.0
 11
9.65625
 21
9.0625
 31
0.0
  0
LINE
  8
0
 62
     0
  5
490
 10
9.71875
 20
9.0625
 30
0.0
 11
9.71875
 21
9.0625
 31
0.0
  0
LINE
  8
0
 62
     0
  5
491
 10
9.78125
 20
9.0625
 30
0.0
 11
9.78125
 21
9.0625
 31
0.0
  0
LINE
  8
0
 62
     0
  5
492
 10
9.84375
 20
9.0625
 30
0.0
 11
9.84375
 21
9.0625
 31
0.0
  0
LINE
  8
0
 62
     0
  5
493
 10
9.90625
 20
9.0625
 30
0.0
 11
9.90625
 21
9.0625
 31
0.0
  0
LINE
  8
0
 62
     0
  5
494
 10
9.96875
 20
9.0625
 30
0.0
 11
9.96875
 21
9.0625
 31
0.0
  0
LINE
  8
0
 62
     0
  5
495
 10
10.71875
 20
9.0625
 30
0.0
 11
10.71875
 21
9.0625
 31
0.0
  0
LINE
  8
0
 62
     0
  5
496
 10
10.78125
 20
9.0625
 30
0.0
 11
10.78125
 21
9.0625
 31
0.0
  0
LINE
  8
0
 62
     0
  5
497
 10
10.84375
 20
9.0625
 30
0.0
 11
10.84375
 21
9.0625
 31
0.0
  0
LINE
  8
0
 62
     0
  5
498
 10
10.90625
 20
9.0625
 30
0.0
 11
10.90625
 21
9.0625
 31
0.0
  0
LINE
  8
0
 62
     0
  5
499
 10
10.96875
 20
9.0625
 30
0.0
 11
10.96875
 21
9.0625
 31
0.0
  0
LINE
  8
0
 62
     0
  5
49A
 10
11.03125
 20
9.0625
 30
0.0
 11
11.03125
 21
9.0625
 31
0.0
  0
LINE
  8
0
 62
     0
  5
49B
 10
11.09375
 20
9.0625
 30
0.0
 11
11.09375
 21
9.0625
 31
0.0
  0
LINE
  8
0
 62
     0
  5
49C
 10
11.15625
 20
9.0625
 30
0.0
 11
11.15625
 21
9.0625
 31
0.0
  0
LINE
  8
0
 62
     0
  5
49D
 10
11.21875
 20
9.0625
 30
0.0
 11
11.21875
 21
9.0625
 31
0.0
  0
LINE
  8
0
 62
     0
  5
49E
 10
11.28125
 20
9.0625
 30
0.0
 11
11.28125
 21
9.0625
 31
0.0
  0
LINE
  8
0
 62
     0
  5
49F
 10
9.375
 20
9.125
 30
0.0
 11
9.375
 21
9.125
 31
0.0
  0
LINE
  8
0
 62
     0
  5
4A0
 10
9.4375
 20
9.125
 30
0.0
 11
9.4375
 21
9.125
 31
0.0
  0
LINE
  8
0
 62
     0
  5
4A1
 10
9.5
 20
9.125
 30
0.0
 11
9.5
 21
9.125
 31
0.0
  0
LINE
  8
0
 62
     0
  5
4A2
 10
9.5625
 20
9.125
 30
0.0
 11
9.5625
 21
9.125
 31
0.0
  0
LINE
  8
0
 62
     0
  5
4A3
 10
9.625
 20
9.125
 30
0.0
 11
9.625
 21
9.125
 31
0.0
  0
LINE
  8
0
 62
     0
  5
4A4
 10
9.6875
 20
9.125
 30
0.0
 11
9.6875
 21
9.125
 31
0.0
  0
LINE
  8
0
 62
     0
  5
4A5
 10
9.75
 20
9.125
 30
0.0
 11
9.75
 21
9.125
 31
0.0
  0
LINE
  8
0
 62
     0
  5
4A6
 10
9.8125
 20
9.125
 30
0.0
 11
9.8125
 21
9.125
 31
0.0
  0
LINE
  8
0
 62
     0
  5
4A7
 10
9.875
 20
9.125
 30
0.0
 11
9.875
 21
9.125
 31
0.0
  0
LINE
  8
0
 62
     0
  5
4A8
 10
9.9375
 20
9.125
 30
0.0
 11
9.9375
 21
9.125
 31
0.0
  0
LINE
  8
0
 62
     0
  5
4A9
 10
10.0
 20
9.125
 30
0.0
 11
10.0
 21
9.125
 31
0.0
  0
LINE
  8
0
 62
     0
  5
4AA
 10
10.6875
 20
9.125
 30
0.0
 11
10.6875
 21
9.125
 31
0.0
  0
LINE
  8
0
 62
     0
  5
4AB
 10
10.75
 20
9.125
 30
0.0
 11
10.75
 21
9.125
 31
0.0
  0
LINE
  8
0
 62
     0
  5
4AC
 10
10.8125
 20
9.125
 30
0.0
 11
10.8125
 21
9.125
 31
0.0
  0
LINE
  8
0
 62
     0
  5
4AD
 10
10.875
 20
9.125
 30
0.0
 11
10.875
 21
9.125
 31
0.0
  0
LINE
  8
0
 62
     0
  5
4AE
 10
10.9375
 20
9.125
 30
0.0
 11
10.9375
 21
9.125
 31
0.0
  0
LINE
  8
0
 62
     0
  5
4AF
 10
11.0
 20
9.125
 30
0.0
 11
11.0
 21
9.125
 31
0.0
  0
LINE
  8
0
 62
     0
  5
4B0
 10
11.0625
 20
9.125
 30
0.0
 11
11.0625
 21
9.125
 31
0.0
  0
LINE
  8
0
 62
     0
  5
4B1
 10
11.125
 20
9.125
 30
0.0
 11
11.125
 21
9.125
 31
0.0
  0
LINE
  8
0
 62
     0
  5
4B2
 10
11.1875
 20
9.125
 30
0.0
 11
11.1875
 21
9.125
 31
0.0
  0
LINE
  8
0
 62
     0
  5
4B3
 10
11.25
 20
9.125
 30
0.0
 11
11.25
 21
9.125
 31
0.0
  0
LINE
  8
0
 62
     0
  5
4B4
 10
9.46875
 20
9.1875
 30
0.0
 11
9.46875
 21
9.1875
 31
0.0
  0
LINE
  8
0
 62
     0
  5
4B5
 10
9.53125
 20
9.1875
 30
0.0
 11
9.53125
 21
9.1875
 31
0.0
  0
LINE
  8
0
 62
     0
  5
4B6
 10
9.59375
 20
9.1875
 30
0.0
 11
9.59375
 21
9.1875
 31
0.0
  0
LINE
  8
0
 62
     0
  5
4B7
 10
9.65625
 20
9.1875
 30
0.0
 11
9.65625
 21
9.1875
 31
0.0
  0
LINE
  8
0
 62
     0
  5
4B8
 10
9.71875
 20
9.1875
 30
0.0
 11
9.71875
 21
9.1875
 31
0.0
  0
LINE
  8
0
 62
     0
  5
4B9
 10
9.78125
 20
9.1875
 30
0.0
 11
9.78125
 21
9.1875
 31
0.0
  0
LINE
  8
0
 62
     0
  5
4BA
 10
9.84375
 20
9.1875
 30
0.0
 11
9.84375
 21
9.1875
 31
0.0
  0
LINE
  8
0
 62
     0
  5
4BB
 10
9.90625
 20
9.1875
 30
0.0
 11
9.90625
 21
9.1875
 31
0.0
  0
LINE
  8
0
 62
     0
  5
4BC
 10
9.96875
 20
9.1875
 30
0.0
 11
9.96875
 21
9.1875
 31
0.0
  0
LINE
  8
0
 62
     0
  5
4BD
 10
10.59375
 20
9.1875
 30
0.0
 11
10.59375
 21
9.1875
 31
0.0
  0
LINE
  8
0
 62
     0
  5
4BE
 10
10.65625
 20
9.1875
 30
0.0
 11
10.65625
 21
9.1875
 31
0.0
  0
LINE
  8
0
 62
     0
  5
4BF
 10
10.71875
 20
9.1875
 30
0.0
 11
10.71875
 21
9.1875
 31
0.0
  0
LINE
  8
0
 62
     0
  5
4C0
 10
10.78125
 20
9.1875
 30
0.0
 11
10.78125
 21
9.1875
 31
0.0
  0
LINE
  8
0
 62
     0
  5
4C1
 10
10.84375
 20
9.1875
 30
0.0
 11
10.84375
 21
9.1875
 31
0.0
  0
LINE
  8
0
 62
     0
  5
4C2
 10
10.90625
 20
9.1875
 30
0.0
 11
10.90625
 21
9.1875
 31
0.0
  0
LINE
  8
0
 62
     0
  5
4C3
 10
10.96875
 20
9.1875
 30
0.0
 11
10.96875
 21
9.1875
 31
0.0
  0
LINE
  8
0
 62
     0
  5
4C4
 10
11.03125
 20
9.1875
 30
0.0
 11
11.03125
 21
9.1875
 31
0.0
  0
LINE
  8
0
 62
     0
  5
4C5
 10
11.09375
 20
9.1875
 30
0.0
 11
11.09375
 21
9.1875
 31
0.0
  0
LINE
  8
0
 62
     0
  5
4C6
 10
11.15625
 20
9.1875
 30
0.0
 11
11.15625
 21
9.1875
 31
0.0
  0
LINE
  8
0
 62
     0
  5
4C7
 10
11.21875
 20
9.1875
 30
0.0
 11
11.21875
 21
9.1875
 31
0.0
  0
LINE
  8
0
 62
     0
  5
4C8
 10
9.5
 20
9.25
 30
0.0
 11
9.5
 21
9.25
 31
0.0
  0
LINE
  8
0
 62
     0
  5
4C9
 10
9.5625
 20
9.25
 30
0.0
 11
9.5625
 21
9.25
 31
0.0
  0
LINE
  8
0
 62
     0
  5
4CA
 10
9.625
 20
9.25
 30
0.0
 11
9.625
 21
9.25
 31
0.0
  0
LINE
  8
0
 62
     0
  5
4CB
 10
9.6875
 20
9.25
 30
0.0
 11
9.6875
 21
9.25
 31
0.0
  0
LINE
  8
0
 62
     0
  5
4CC
 10
9.75
 20
9.25
 30
0.0
 11
9.75
 21
9.25
 31
0.0
  0
LINE
  8
0
 62
     0
  5
4CD
 10
9.8125
 20
9.25
 30
0.0
 11
9.8125
 21
9.25
 31
0.0
  0
LINE
  8
0
 62
     0
  5
4CE
 10
9.875
 20
9.25
 30
0.0
 11
9.875
 21
9.25
 31
0.0
  0
LINE
  8
0
 62
     0
  5
4CF
 10
9.9375
 20
9.25
 30
0.0
 11
9.9375
 21
9.25
 31
0.0
  0
LINE
  8
0
 62
     0
  5
4D0
 10
10.0
 20
9.25
 30
0.0
 11
10.0
 21
9.25
 31
0.0
  0
LINE
  8
0
 62
     0
  5
4D1
 10
10.5625
 20
9.25
 30
0.0
 11
10.5625
 21
9.25
 31
0.0
  0
LINE
  8
0
 62
     0
  5
4D2
 10
10.625
 20
9.25
 30
0.0
 11
10.625
 21
9.25
 31
0.0
  0
LINE
  8
0
 62
     0
  5
4D3
 10
10.6875
 20
9.25
 30
0.0
 11
10.6875
 21
9.25
 31
0.0
  0
LINE
  8
0
 62
     0
  5
4D4
 10
10.75
 20
9.25
 30
0.0
 11
10.75
 21
9.25
 31
0.0
  0
LINE
  8
0
 62
     0
  5
4D5
 10
10.8125
 20
9.25
 30
0.0
 11
10.8125
 21
9.25
 31
0.0
  0
LINE
  8
0
 62
     0
  5
4D6
 10
10.875
 20
9.25
 30
0.0
 11
10.875
 21
9.25
 31
0.0
  0
LINE
  8
0
 62
     0
  5
4D7
 10
10.9375
 20
9.25
 30
0.0
 11
10.9375
 21
9.25
 31
0.0
  0
LINE
  8
0
 62
     0
  5
4D8
 10
11.0
 20
9.25
 30
0.0
 11
11.0
 21
9.25
 31
0.0
  0
LINE
  8
0
 62
     0
  5
4D9
 10
11.0625
 20
9.25
 30
0.0
 11
11.0625
 21
9.25
 31
0.0
  0
LINE
  8
0
 62
     0
  5
4DA
 10
11.125
 20
9.25
 30
0.0
 11
11.125
 21
9.25
 31
0.0
  0
LINE
  8
0
 62
     0
  5
4DB
 10
11.1875
 20
9.25
 30
0.0
 11
11.1875
 21
9.25
 31
0.0
  0
LINE
  8
0
 62
     0
  5
4DC
 10
11.25
 20
9.25
 30
0.0
 11
11.25
 21
9.25
 31
0.0
  0
LINE
  8
0
 62
     0
  5
4DD
 10
9.53125
 20
9.3125
 30
0.0
 11
9.53125
 21
9.3125
 31
0.0
  0
LINE
  8
0
 62
     0
  5
4DE
 10
9.59375
 20
9.3125
 30
0.0
 11
9.59375
 21
9.3125
 31
0.0
  0
LINE
  8
0
 62
     0
  5
4DF
 10
9.65625
 20
9.3125
 30
0.0
 11
9.65625
 21
9.3125
 31
0.0
  0
LINE
  8
0
 62
     0
  5
4E0
 10
9.71875
 20
9.3125
 30
0.0
 11
9.71875
 21
9.3125
 31
0.0
  0
LINE
  8
0
 62
     0
  5
4E1
 10
9.78125
 20
9.3125
 30
0.0
 11
9.78125
 21
9.3125
 31
0.0
  0
LINE
  8
0
 62
     0
  5
4E2
 10
9.84375
 20
9.3125
 30
0.0
 11
9.84375
 21
9.3125
 31
0.0
  0
LINE
  8
0
 62
     0
  5
4E3
 10
9.90625
 20
9.3125
 30
0.0
 11
9.90625
 21
9.3125
 31
0.0
  0
LINE
  8
0
 62
     0
  5
4E4
 10
9.96875
 20
9.3125
 30
0.0
 11
9.96875
 21
9.3125
 31
0.0
  0
LINE
  8
0
 62
     0
  5
4E5
 10
10.53125
 20
9.3125
 30
0.0
 11
10.53125
 21
9.3125
 31
0.0
  0
LINE
  8
0
 62
     0
  5
4E6
 10
10.59375
 20
9.3125
 30
0.0
 11
10.59375
 21
9.3125
 31
0.0
  0
LINE
  8
0
 62
     0
  5
4E7
 10
10.65625
 20
9.3125
 30
0.0
 11
10.65625
 21
9.3125
 31
0.0
  0
LINE
  8
0
 62
     0
  5
4E8
 10
10.71875
 20
9.3125
 30
0.0
 11
10.71875
 21
9.3125
 31
0.0
  0
LINE
  8
0
 62
     0
  5
4E9
 10
10.78125
 20
9.3125
 30
0.0
 11
10.78125
 21
9.3125
 31
0.0
  0
LINE
  8
0
 62
     0
  5
4EA
 10
10.84375
 20
9.3125
 30
0.0
 11
10.84375
 21
9.3125
 31
0.0
  0
LINE
  8
0
 62
     0
  5
4EB
 10
10.90625
 20
9.3125
 30
0.0
 11
10.90625
 21
9.3125
 31
0.0
  0
LINE
  8
0
 62
     0
  5
4EC
 10
10.96875
 20
9.3125
 30
0.0
 11
10.96875
 21
9.3125
 31
0.0
  0
LINE
  8
0
 62
     0
  5
4ED
 10
11.03125
 20
9.3125
 30
0.0
 11
11.03125
 21
9.3125
 31
0.0
  0
LINE
  8
0
 62
     0
  5
4EE
 10
11.09375
 20
9.3125
 30
0.0
 11
11.09375
 21
9.3125
 31
0.0
  0
LINE
  8
0
 62
     0
  5
4EF
 10
11.15625
 20
9.3125
 30
0.0
 11
11.15625
 21
9.3125
 31
0.0
  0
LINE
  8
0
 62
     0
  5
4F0
 10
11.21875
 20
9.3125
 30
0.0
 11
11.21875
 21
9.3125
 31
0.0
  0
LINE
  8
0
 62
     0
  5
4F1
 10
9.5625
 20
9.375
 30
0.0
 11
9.5625
 21
9.375
 31
0.0
  0
LINE
  8
0
 62
     0
  5
4F2
 10
9.625
 20
9.375
 30
0.0
 11
9.625
 21
9.375
 31
0.0
  0
LINE
  8
0
 62
     0
  5
4F3
 10
9.6875
 20
9.375
 30
0.0
 11
9.6875
 21
9.375
 31
0.0
  0
LINE
  8
0
 62
     0
  5
4F4
 10
9.75
 20
9.375
 30
0.0
 11
9.75
 21
9.375
 31
0.0
  0
LINE
  8
0
 62
     0
  5
4F5
 10
9.8125
 20
9.375
 30
0.0
 11
9.8125
 21
9.375
 31
0.0
  0
LINE
  8
0
 62
     0
  5
4F6
 10
9.875
 20
9.375
 30
0.0
 11
9.875
 21
9.375
 31
0.0
  0
LINE
  8
0
 62
     0
  5
4F7
 10
9.9375
 20
9.375
 30
0.0
 11
9.9375
 21
9.375
 31
0.0
  0
LINE
  8
0
 62
     0
  5
4F8
 10
10.0
 20
9.375
 30
0.0
 11
10.0
 21
9.375
 31
0.0
  0
LINE
  8
0
 62
     0
  5
4F9
 10
10.5
 20
9.375
 30
0.0
 11
10.5
 21
9.375
 31
0.0
  0
LINE
  8
0
 62
     0
  5
4FA
 10
10.5625
 20
9.375
 30
0.0
 11
10.5625
 21
9.375
 31
0.0
  0
LINE
  8
0
 62
     0
  5
4FB
 10
10.625
 20
9.375
 30
0.0
 11
10.625
 21
9.375
 31
0.0
  0
LINE
  8
0
 62
     0
  5
4FC
 10
10.6875
 20
9.375
 30
0.0
 11
10.6875
 21
9.375
 31
0.0
  0
LINE
  8
0
 62
     0
  5
4FD
 10
10.75
 20
9.375
 30
0.0
 11
10.75
 21
9.375
 31
0.0
  0
LINE
  8
0
 62
     0
  5
4FE
 10
10.8125
 20
9.375
 30
0.0
 11
10.8125
 21
9.375
 31
0.0
  0
LINE
  8
0
 62
     0
  5
4FF
 10
10.875
 20
9.375
 30
0.0
 11
10.875
 21
9.375
 31
0.0
  0
LINE
  8
0
 62
     0
  5
500
 10
10.9375
 20
9.375
 30
0.0
 11
10.9375
 21
9.375
 31
0.0
  0
LINE
  8
0
 62
     0
  5
501
 10
11.0
 20
9.375
 30
0.0
 11
11.0
 21
9.375
 31
0.0
  0
LINE
  8
0
 62
     0
  5
502
 10
11.0625
 20
9.375
 30
0.0
 11
11.0625
 21
9.375
 31
0.0
  0
LINE
  8
0
 62
     0
  5
503
 10
11.125
 20
9.375
 30
0.0
 11
11.125
 21
9.375
 31
0.0
  0
LINE
  8
0
 62
     0
  5
504
 10
11.1875
 20
9.375
 30
0.0
 11
11.1875
 21
9.375
 31
0.0
  0
LINE
  8
0
 62
     0
  5
505
 10
9.59375
 20
9.4375
 30
0.0
 11
9.59375
 21
9.4375
 31
0.0
  0
LINE
  8
0
 62
     0
  5
506
 10
9.65625
 20
9.4375
 30
0.0
 11
9.65625
 21
9.4375
 31
0.0
  0
LINE
  8
0
 62
     0
  5
507
 10
9.71875
 20
9.4375
 30
0.0
 11
9.71875
 21
9.4375
 31
0.0
  0
LINE
  8
0
 62
     0
  5
508
 10
9.78125
 20
9.4375
 30
0.0
 11
9.78125
 21
9.4375
 31
0.0
  0
LINE
  8
0
 62
     0
  5
509
 10
9.84375
 20
9.4375
 30
0.0
 11
9.84375
 21
9.4375
 31
0.0
  0
LINE
  8
0
 62
     0
  5
50A
 10
9.90625
 20
9.4375
 30
0.0
 11
9.90625
 21
9.4375
 31
0.0
  0
LINE
  8
0
 62
     0
  5
50B
 10
9.96875
 20
9.4375
 30
0.0
 11
9.96875
 21
9.4375
 31
0.0
  0
LINE
  8
0
 62
     0
  5
50C
 10
10.46875
 20
9.4375
 30
0.0
 11
10.46875
 21
9.4375
 31
0.0
  0
LINE
  8
0
 62
     0
  5
50D
 10
10.53125
 20
9.4375
 30
0.0
 11
10.53125
 21
9.4375
 31
0.0
  0
LINE
  8
0
 62
     0
  5
50E
 10
10.59375
 20
9.4375
 30
0.0
 11
10.59375
 21
9.4375
 31
0.0
  0
LINE
  8
0
 62
     0
  5
50F
 10
10.65625
 20
9.4375
 30
0.0
 11
10.65625
 21
9.4375
 31
0.0
  0
LINE
  8
0
 62
     0
  5
510
 10
10.71875
 20
9.4375
 30
0.0
 11
10.71875
 21
9.4375
 31
0.0
  0
LINE
  8
0
 62
     0
  5
511
 10
10.78125
 20
9.4375
 30
0.0
 11
10.78125
 21
9.4375
 31
0.0
  0
LINE
  8
0
 62
     0
  5
512
 10
10.84375
 20
9.4375
 30
0.0
 11
10.84375
 21
9.4375
 31
0.0
  0
LINE
  8
0
 62
     0
  5
513
 10
10.90625
 20
9.4375
 30
0.0
 11
10.90625
 21
9.4375
 31
0.0
  0
LINE
  8
0
 62
     0
  5
514
 10
10.96875
 20
9.4375
 30
0.0
 11
10.96875
 21
9.4375
 31
0.0
  0
LINE
  8
0
 62
     0
  5
515
 10
11.03125
 20
9.4375
 30
0.0
 11
11.03125
 21
9.4375
 31
0.0
  0
LINE
  8
0
 62
     0
  5
516
 10
11.09375
 20
9.4375
 30
0.0
 11
11.09375
 21
9.4375
 31
0.0
  0
LINE
  8
0
 62
     0
  5
517
 10
11.15625
 20
9.4375
 30
0.0
 11
11.15625
 21
9.4375
 31
0.0
  0
LINE
  8
0
 62
     0
  5
518
 10
11.21875
 20
9.4375
 30
0.0
 11
11.21875
 21
9.4375
 31
0.0
  0
LINE
  8
0
 62
     0
  5
519
 10
9.6875
 20
9.5
 30
0.0
 11
9.6875
 21
9.5
 31
0.0
  0
LINE
  8
0
 62
     0
  5
51A
 10
9.75
 20
9.5
 30
0.0
 11
9.75
 21
9.5
 31
0.0
  0
LINE
  8
0
 62
     0
  5
51B
 10
9.8125
 20
9.5
 30
0.0
 11
9.8125
 21
9.5
 31
0.0
  0
LINE
  8
0
 62
     0
  5
51C
 10
9.875
 20
9.5
 30
0.0
 11
9.875
 21
9.5
 31
0.0
  0
LINE
  8
0
 62
     0
  5
51D
 10
9.9375
 20
9.5
 30
0.0
 11
9.9375
 21
9.5
 31
0.0
  0
LINE
  8
0
 62
     0
  5
51E
 10
10.0
 20
9.5
 30
0.0
 11
10.0
 21
9.5
 31
0.0
  0
LINE
  8
0
 62
     0
  5
51F
 10
10.375
 20
9.5
 30
0.0
 11
10.375
 21
9.5
 31
0.0
  0
LINE
  8
0
 62
     0
  5
520
 10
10.4375
 20
9.5
 30
0.0
 11
10.4375
 21
9.5
 31
0.0
  0
LINE
  8
0
 62
     0
  5
521
 10
10.5
 20
9.5
 30
0.0
 11
10.5
 21
9.5
 31
0.0
  0
LINE
  8
0
 62
     0
  5
522
 10
10.5625
 20
9.5
 30
0.0
 11
10.5625
 21
9.5
 31
0.0
  0
LINE
  8
0
 62
     0
  5
523
 10
10.625
 20
9.5
 30
0.0
 11
10.625
 21
9.5
 31
0.0
  0
LINE
  8
0
 62
     0
  5
524
 10
10.6875
 20
9.5
 30
0.0
 11
10.6875
 21
9.5
 31
0.0
  0
LINE
  8
0
 62
     0
  5
525
 10
10.75
 20
9.5
 30
0.0
 11
10.75
 21
9.5
 31
0.0
  0
LINE
  8
0
 62
     0
  5
526
 10
10.8125
 20
9.5
 30
0.0
 11
10.8125
 21
9.5
 31
0.0
  0
LINE
  8
0
 62
     0
  5
527
 10
10.875
 20
9.5
 30
0.0
 11
10.875
 21
9.5
 31
0.0
  0
LINE
  8
0
 62
     0
  5
528
 10
10.9375
 20
9.5
 30
0.0
 11
10.9375
 21
9.5
 31
0.0
  0
LINE
  8
0
 62
     0
  5
529
 10
11.0
 20
9.5
 30
0.0
 11
11.0
 21
9.5
 31
0.0
  0
LINE
  8
0
 62
     0
  5
52A
 10
11.0625
 20
9.5
 30
0.0
 11
11.0625
 21
9.5
 31
0.0
  0
LINE
  8
0
 62
     0
  5
52B
 10
11.125
 20
9.5
 30
0.0
 11
11.125
 21
9.5
 31
0.0
  0
LINE
  8
0
 62
     0
  5
52C
 10
11.1875
 20
9.5
 30
0.0
 11
11.1875
 21
9.5
 31
0.0
  0
LINE
  8
0
 62
     0
  5
52D
 10
9.71875
 20
9.5625
 30
0.0
 11
9.71875
 21
9.5625
 31
0.0
  0
LINE
  8
0
 62
     0
  5
52E
 10
9.78125
 20
9.5625
 30
0.0
 11
9.78125
 21
9.5625
 31
0.0
  0
LINE
  8
0
 62
     0
  5
52F
 10
9.84375
 20
9.5625
 30
0.0
 11
9.84375
 21
9.5625
 31
0.0
  0
LINE
  8
0
 62
     0
  5
530
 10
9.90625
 20
9.5625
 30
0.0
 11
9.90625
 21
9.5625
 31
0.0
  0
LINE
  8
0
 62
     0
  5
531
 10
9.96875
 20
9.5625
 30
0.0
 11
9.96875
 21
9.5625
 31
0.0
  0
LINE
  8
0
 62
     0
  5
532
 10
10.34375
 20
9.5625
 30
0.0
 11
10.34375
 21
9.5625
 31
0.0
  0
LINE
  8
0
 62
     0
  5
533
 10
10.40625
 20
9.5625
 30
0.0
 11
10.40625
 21
9.5625
 31
0.0
  0
LINE
  8
0
 62
     0
  5
534
 10
10.46875
 20
9.5625
 30
0.0
 11
10.46875
 21
9.5625
 31
0.0
  0
LINE
  8
0
 62
     0
  5
535
 10
10.53125
 20
9.5625
 30
0.0
 11
10.53125
 21
9.5625
 31
0.0
  0
LINE
  8
0
 62
     0
  5
536
 10
10.59375
 20
9.5625
 30
0.0
 11
10.59375
 21
9.5625
 31
0.0
  0
LINE
  8
0
 62
     0
  5
537
 10
10.65625
 20
9.5625
 30
0.0
 11
10.65625
 21
9.5625
 31
0.0
  0
LINE
  8
0
 62
     0
  5
538
 10
10.71875
 20
9.5625
 30
0.0
 11
10.71875
 21
9.5625
 31
0.0
  0
LINE
  8
0
 62
     0
  5
539
 10
10.78125
 20
9.5625
 30
0.0
 11
10.78125
 21
9.5625
 31
0.0
  0
LINE
  8
0
 62
     0
  5
53A
 10
10.84375
 20
9.5625
 30
0.0
 11
10.84375
 21
9.5625
 31
0.0
  0
LINE
  8
0
 62
     0
  5
53B
 10
10.90625
 20
9.5625
 30
0.0
 11
10.90625
 21
9.5625
 31
0.0
  0
LINE
  8
0
 62
     0
  5
53C
 10
10.96875
 20
9.5625
 30
0.0
 11
10.96875
 21
9.5625
 31
0.0
  0
LINE
  8
0
 62
     0
  5
53D
 10
11.03125
 20
9.5625
 30
0.0
 11
11.03125
 21
9.5625
 31
0.0
  0
LINE
  8
0
 62
     0
  5
53E
 10
11.09375
 20
9.5625
 30
0.0
 11
11.09375
 21
9.5625
 31
0.0
  0
LINE
  8
0
 62
     0
  5
53F
 10
11.15625
 20
9.5625
 30
0.0
 11
11.15625
 21
9.5625
 31
0.0
  0
LINE
  8
0
 62
     0
  5
540
 10
8.8125
 20
9.625
 30
0.0
 11
8.8125
 21
9.625
 31
0.0
  0
LINE
  8
0
 62
     0
  5
541
 10
10.3125
 20
9.625
 30
0.0
 11
10.3125
 21
9.625
 31
0.0
  0
LINE
  8
0
 62
     0
  5
542
 10
10.375
 20
9.625
 30
0.0
 11
10.375
 21
9.625
 31
0.0
  0
LINE
  8
0
 62
     0
  5
543
 10
10.4375
 20
9.625
 30
0.0
 11
10.4375
 21
9.625
 31
0.0
  0
LINE
  8
0
 62
     0
  5
544
 10
10.5
 20
9.625
 30
0.0
 11
10.5
 21
9.625
 31
0.0
  0
LINE
  8
0
 62
     0
  5
545
 10
10.5625
 20
9.625
 30
0.0
 11
10.5625
 21
9.625
 31
0.0
  0
LINE
  8
0
 62
     0
  5
546
 10
10.625
 20
9.625
 30
0.0
 11
10.625
 21
9.625
 31
0.0
  0
LINE
  8
0
 62
     0
  5
547
 10
10.6875
 20
9.625
 30
0.0
 11
10.6875
 21
9.625
 31
0.0
  0
LINE
  8
0
 62
     0
  5
548
 10
10.75
 20
9.625
 30
0.0
 11
10.75
 21
9.625
 31
0.0
  0
LINE
  8
0
 62
     0
  5
549
 10
10.8125
 20
9.625
 30
0.0
 11
10.8125
 21
9.625
 31
0.0
  0
LINE
  8
0
 62
     0
  5
54A
 10
10.875
 20
9.625
 30
0.0
 11
10.875
 21
9.625
 31
0.0
  0
LINE
  8
0
 62
     0
  5
54B
 10
10.9375
 20
9.625
 30
0.0
 11
10.9375
 21
9.625
 31
0.0
  0
LINE
  8
0
 62
     0
  5
54C
 10
11.0
 20
9.625
 30
0.0
 11
11.0
 21
9.625
 31
0.0
  0
LINE
  8
0
 62
     0
  5
54D
 10
11.0625
 20
9.625
 30
0.0
 11
11.0625
 21
9.625
 31
0.0
  0
LINE
  8
0
 62
     0
  5
54E
 10
11.125
 20
9.625
 30
0.0
 11
11.125
 21
9.625
 31
0.0
  0
LINE
  8
0
 62
     0
  5
54F
 10
9.75
 20
9.625
 30
0.0
 11
9.75
 21
9.625
 31
0.0
  0
LINE
  8
0
 62
     0
  5
550
 10
9.8125
 20
9.625
 30
0.0
 11
9.8125
 21
9.625
 31
0.0
  0
LINE
  8
0
 62
     0
  5
551
 10
9.875
 20
9.625
 30
0.0
 11
9.875
 21
9.625
 31
0.0
  0
LINE
  8
0
 62
     0
  5
552
 10
9.9375
 20
9.625
 30
0.0
 11
9.9375
 21
9.625
 31
0.0
  0
LINE
  8
0
 62
     0
  5
553
 10
10.0
 20
9.625
 30
0.0
 11
10.0
 21
9.625
 31
0.0
  0
LINE
  8
0
 62
     0
  5
554
 10
8.78125
 20
9.6875
 30
0.0
 11
8.78125
 21
9.6875
 31
0.0
  0
LINE
  8
0
 62
     0
  5
555
 10
8.84375
 20
9.6875
 30
0.0
 11
8.84375
 21
9.6875
 31
0.0
  0
LINE
  8
0
 62
     0
  5
556
 10
8.90625
 20
9.6875
 30
0.0
 11
8.90625
 21
9.6875
 31
0.0
  0
LINE
  8
0
 62
     0
  5
557
 10
8.96875
 20
9.6875
 30
0.0
 11
8.96875
 21
9.6875
 31
0.0
  0
LINE
  8
0
 62
     0
  5
558
 10
9.03125
 20
9.6875
 30
0.0
 11
9.03125
 21
9.6875
 31
0.0
  0
LINE
  8
0
 62
     0
  5
559
 10
10.28125
 20
9.6875
 30
0.0
 11
10.28125
 21
9.6875
 31
0.0
  0
LINE
  8
0
 62
     0
  5
55A
 10
10.34375
 20
9.6875
 30
0.0
 11
10.34375
 21
9.6875
 31
0.0
  0
LINE
  8
0
 62
     0
  5
55B
 10
10.40625
 20
9.6875
 30
0.0
 11
10.40625
 21
9.6875
 31
0.0
  0
LINE
  8
0
 62
     0
  5
55C
 10
10.46875
 20
9.6875
 30
0.0
 11
10.46875
 21
9.6875
 31
0.0
  0
LINE
  8
0
 62
     0
  5
55D
 10
10.53125
 20
9.6875
 30
0.0
 11
10.53125
 21
9.6875
 31
0.0
  0
LINE
  8
0
 62
     0
  5
55E
 10
10.59375
 20
9.6875
 30
0.0
 11
10.59375
 21
9.6875
 31
0.0
  0
LINE
  8
0
 62
     0
  5
55F
 10
10.65625
 20
9.6875
 30
0.0
 11
10.65625
 21
9.6875
 31
0.0
  0
LINE
  8
0
 62
     0
  5
560
 10
10.71875
 20
9.6875
 30
0.0
 11
10.71875
 21
9.6875
 31
0.0
  0
LINE
  8
0
 62
     0
  5
561
 10
10.78125
 20
9.6875
 30
0.0
 11
10.78125
 21
9.6875
 31
0.0
  0
LINE
  8
0
 62
     0
  5
562
 10
10.84375
 20
9.6875
 30
0.0
 11
10.84375
 21
9.6875
 31
0.0
  0
LINE
  8
0
 62
     0
  5
563
 10
10.90625
 20
9.6875
 30
0.0
 11
10.90625
 21
9.6875
 31
0.0
  0
LINE
  8
0
 62
     0
  5
564
 10
9.78125
 20
9.6875
 30
0.0
 11
9.78125
 21
9.6875
 31
0.0
  0
LINE
  8
0
 62
     0
  5
565
 10
9.84375
 20
9.6875
 30
0.0
 11
9.84375
 21
9.6875
 31
0.0
  0
LINE
  8
0
 62
     0
  5
566
 10
9.90625
 20
9.6875
 30
0.0
 11
9.90625
 21
9.6875
 31
0.0
  0
LINE
  8
0
 62
     0
  5
567
 10
9.96875
 20
9.6875
 30
0.0
 11
9.96875
 21
9.6875
 31
0.0
  0
LINE
  8
0
 62
     0
  5
568
 10
8.6875
 20
9.75
 30
0.0
 11
8.6875
 21
9.75
 31
0.0
  0
LINE
  8
0
 62
     0
  5
569
 10
8.75
 20
9.75
 30
0.0
 11
8.75
 21
9.75
 31
0.0
  0
LINE
  8
0
 62
     0
  5
56A
 10
8.8125
 20
9.75
 30
0.0
 11
8.8125
 21
9.75
 31
0.0
  0
LINE
  8
0
 62
     0
  5
56B
 10
8.875
 20
9.75
 30
0.0
 11
8.875
 21
9.75
 31
0.0
  0
LINE
  8
0
 62
     0
  5
56C
 10
8.9375
 20
9.75
 30
0.0
 11
8.9375
 21
9.75
 31
0.0
  0
LINE
  8
0
 62
     0
  5
56D
 10
9.0
 20
9.75
 30
0.0
 11
9.0
 21
9.75
 31
0.0
  0
LINE
  8
0
 62
     0
  5
56E
 10
9.0625
 20
9.75
 30
0.0
 11
9.0625
 21
9.75
 31
0.0
  0
LINE
  8
0
 62
     0
  5
56F
 10
9.125
 20
9.75
 30
0.0
 11
9.125
 21
9.75
 31
0.0
  0
LINE
  8
0
 62
     0
  5
570
 10
9.1875
 20
9.75
 30
0.0
 11
9.1875
 21
9.75
 31
0.0
  0
LINE
  8
0
 62
     0
  5
571
 10
10.1875
 20
9.75
 30
0.0
 11
10.1875
 21
9.75
 31
0.0
  0
LINE
  8
0
 62
     0
  5
572
 10
10.25
 20
9.75
 30
0.0
 11
10.25
 21
9.75
 31
0.0
  0
LINE
  8
0
 62
     0
  5
573
 10
10.3125
 20
9.75
 30
0.0
 11
10.3125
 21
9.75
 31
0.0
  0
LINE
  8
0
 62
     0
  5
574
 10
10.375
 20
9.75
 30
0.0
 11
10.375
 21
9.75
 31
0.0
  0
LINE
  8
0
 62
     0
  5
575
 10
10.4375
 20
9.75
 30
0.0
 11
10.4375
 21
9.75
 31
0.0
  0
LINE
  8
0
 62
     0
  5
576
 10
10.5
 20
9.75
 30
0.0
 11
10.5
 21
9.75
 31
0.0
  0
LINE
  8
0
 62
     0
  5
577
 10
10.5625
 20
9.75
 30
0.0
 11
10.5625
 21
9.75
 31
0.0
  0
LINE
  8
0
 62
     0
  5
578
 10
10.625
 20
9.75
 30
0.0
 11
10.625
 21
9.75
 31
0.0
  0
LINE
  8
0
 62
     0
  5
579
 10
10.6875
 20
9.75
 30
0.0
 11
10.6875
 21
9.75
 31
0.0
  0
LINE
  8
0
 62
     0
  5
57A
 10
10.75
 20
9.75
 30
0.0
 11
10.75
 21
9.75
 31
0.0
  0
LINE
  8
0
 62
     0
  5
57B
 10
9.875
 20
9.75
 30
0.0
 11
9.875
 21
9.75
 31
0.0
  0
LINE
  8
0
 62
     0
  5
57C
 10
9.9375
 20
9.75
 30
0.0
 11
9.9375
 21
9.75
 31
0.0
  0
LINE
  8
0
 62
     0
  5
57D
 10
10.0
 20
9.75
 30
0.0
 11
10.0
 21
9.75
 31
0.0
  0
LINE
  8
0
 62
     0
  5
57E
 10
8.65625
 20
9.8125
 30
0.0
 11
8.65625
 21
9.8125
 31
0.0
  0
LINE
  8
0
 62
     0
  5
57F
 10
8.71875
 20
9.8125
 30
0.0
 11
8.71875
 21
9.8125
 31
0.0
  0
LINE
  8
0
 62
     0
  5
580
 10
8.78125
 20
9.8125
 30
0.0
 11
8.78125
 21
9.8125
 31
0.0
  0
LINE
  8
0
 62
     0
  5
581
 10
8.84375
 20
9.8125
 30
0.0
 11
8.84375
 21
9.8125
 31
0.0
  0
LINE
  8
0
 62
     0
  5
582
 10
8.90625
 20
9.8125
 30
0.0
 11
8.90625
 21
9.8125
 31
0.0
  0
LINE
  8
0
 62
     0
  5
583
 10
8.96875
 20
9.8125
 30
0.0
 11
8.96875
 21
9.8125
 31
0.0
  0
LINE
  8
0
 62
     0
  5
584
 10
9.03125
 20
9.8125
 30
0.0
 11
9.03125
 21
9.8125
 31
0.0
  0
LINE
  8
0
 62
     0
  5
585
 10
9.09375
 20
9.8125
 30
0.0
 11
9.09375
 21
9.8125
 31
0.0
  0
LINE
  8
0
 62
     0
  5
586
 10
9.15625
 20
9.8125
 30
0.0
 11
9.15625
 21
9.8125
 31
0.0
  0
LINE
  8
0
 62
     0
  5
587
 10
9.21875
 20
9.8125
 30
0.0
 11
9.21875
 21
9.8125
 31
0.0
  0
LINE
  8
0
 62
     0
  5
588
 10
9.28125
 20
9.8125
 30
0.0
 11
9.28125
 21
9.8125
 31
0.0
  0
LINE
  8
0
 62
     0
  5
589
 10
9.34375
 20
9.8125
 30
0.0
 11
9.34375
 21
9.8125
 31
0.0
  0
LINE
  8
0
 62
     0
  5
58A
 10
9.40625
 20
9.8125
 30
0.0
 11
9.40625
 21
9.8125
 31
0.0
  0
LINE
  8
0
 62
     0
  5
58B
 10
10.15625
 20
9.8125
 30
0.0
 11
10.15625
 21
9.8125
 31
0.0
  0
LINE
  8
0
 62
     0
  5
58C
 10
10.21875
 20
9.8125
 30
0.0
 11
10.21875
 21
9.8125
 31
0.0
  0
LINE
  8
0
 62
     0
  5
58D
 10
10.28125
 20
9.8125
 30
0.0
 11
10.28125
 21
9.8125
 31
0.0
  0
LINE
  8
0
 62
     0
  5
58E
 10
10.34375
 20
9.8125
 30
0.0
 11
10.34375
 21
9.8125
 31
0.0
  0
LINE
  8
0
 62
     0
  5
58F
 10
10.40625
 20
9.8125
 30
0.0
 11
10.40625
 21
9.8125
 31
0.0
  0
LINE
  8
0
 62
     0
  5
590
 10
10.46875
 20
9.8125
 30
0.0
 11
10.46875
 21
9.8125
 31
0.0
  0
LINE
  8
0
 62
     0
  5
591
 10
10.53125
 20
9.8125
 30
0.0
 11
10.53125
 21
9.8125
 31
0.0
  0
LINE
  8
0
 62
     0
  5
592
 10
9.90625
 20
9.8125
 30
0.0
 11
9.90625
 21
9.8125
 31
0.0
  0
LINE
  8
0
 62
     0
  5
593
 10
9.96875
 20
9.8125
 30
0.0
 11
9.96875
 21
9.8125
 31
0.0
  0
LINE
  8
0
 62
     0
  5
594
 10
8.5625
 20
9.875
 30
0.0
 11
8.5625
 21
9.875
 31
0.0
  0
LINE
  8
0
 62
     0
  5
595
 10
8.625
 20
9.875
 30
0.0
 11
8.625
 21
9.875
 31
0.0
  0
LINE
  8
0
 62
     0
  5
596
 10
8.6875
 20
9.875
 30
0.0
 11
8.6875
 21
9.875
 31
0.0
  0
LINE
  8
0
 62
     0
  5
597
 10
8.75
 20
9.875
 30
0.0
 11
8.75
 21
9.875
 31
0.0
  0
LINE
  8
0
 62
     0
  5
598
 10
8.8125
 20
9.875
 30
0.0
 11
8.8125
 21
9.875
 31
0.0
  0
LINE
  8
0
 62
     0
  5
599
 10
8.875
 20
9.875
 30
0.0
 11
8.875
 21
9.875
 31
0.0
  0
LINE
  8
0
 62
     0
  5
59A
 10
8.9375
 20
9.875
 30
0.0
 11
8.9375
 21
9.875
 31
0.0
  0
LINE
  8
0
 62
     0
  5
59B
 10
9.0
 20
9.875
 30
0.0
 11
9.0
 21
9.875
 31
0.0
  0
LINE
  8
0
 62
     0
  5
59C
 10
9.0625
 20
9.875
 30
0.0
 11
9.0625
 21
9.875
 31
0.0
  0
LINE
  8
0
 62
     0
  5
59D
 10
9.125
 20
9.875
 30
0.0
 11
9.125
 21
9.875
 31
0.0
  0
LINE
  8
0
 62
     0
  5
59E
 10
9.1875
 20
9.875
 30
0.0
 11
9.1875
 21
9.875
 31
0.0
  0
LINE
  8
0
 62
     0
  5
59F
 10
9.25
 20
9.875
 30
0.0
 11
9.25
 21
9.875
 31
0.0
  0
LINE
  8
0
 62
     0
  5
5A0
 10
9.3125
 20
9.875
 30
0.0
 11
9.3125
 21
9.875
 31
0.0
  0
LINE
  8
0
 62
     0
  5
5A1
 10
9.375
 20
9.875
 30
0.0
 11
9.375
 21
9.875
 31
0.0
  0
LINE
  8
0
 62
     0
  5
5A2
 10
9.4375
 20
9.875
 30
0.0
 11
9.4375
 21
9.875
 31
0.0
  0
LINE
  8
0
 62
     0
  5
5A3
 10
9.5
 20
9.875
 30
0.0
 11
9.5
 21
9.875
 31
0.0
  0
LINE
  8
0
 62
     0
  5
5A4
 10
9.5625
 20
9.875
 30
0.0
 11
9.5625
 21
9.875
 31
0.0
  0
LINE
  8
0
 62
     0
  5
5A5
 10
10.125
 20
9.875
 30
0.0
 11
10.125
 21
9.875
 31
0.0
  0
LINE
  8
0
 62
     0
  5
5A6
 10
10.1875
 20
9.875
 30
0.0
 11
10.1875
 21
9.875
 31
0.0
  0
LINE
  8
0
 62
     0
  5
5A7
 10
10.25
 20
9.875
 30
0.0
 11
10.25
 21
9.875
 31
0.0
  0
LINE
  8
0
 62
     0
  5
5A8
 10
10.3125
 20
9.875
 30
0.0
 11
10.3125
 21
9.875
 31
0.0
  0
LINE
  8
0
 62
     0
  5
5A9
 10
10.375
 20
9.875
 30
0.0
 11
10.375
 21
9.875
 31
0.0
  0
LINE
  8
0
 62
     0
  5
5AA
 10
9.9375
 20
9.875
 30
0.0
 11
9.9375
 21
9.875
 31
0.0
  0
LINE
  8
0
 62
     0
  5
5AB
 10
10.0
 20
9.875
 30
0.0
 11
10.0
 21
9.875
 31
0.0
  0
LINE
  8
0
 62
     0
  5
5AC
 10
8.53125
 20
9.9375
 30
0.0
 11
8.53125
 21
9.9375
 31
0.0
  0
LINE
  8
0
 62
     0
  5
5AD
 10
8.59375
 20
9.9375
 30
0.0
 11
8.59375
 21
9.9375
 31
0.0
  0
LINE
  8
0
 62
     0
  5
5AE
 10
8.65625
 20
9.9375
 30
0.0
 11
8.65625
 21
9.9375
 31
0.0
  0
LINE
  8
0
 62
     0
  5
5AF
 10
8.71875
 20
9.9375
 30
0.0
 11
8.71875
 21
9.9375
 31
0.0
  0
LINE
  8
0
 62
     0
  5
5B0
 10
8.78125
 20
9.9375
 30
0.0
 11
8.78125
 21
9.9375
 31
0.0
  0
LINE
  8
0
 62
     0
  5
5B1
 10
8.84375
 20
9.9375
 30
0.0
 11
8.84375
 21
9.9375
 31
0.0
  0
LINE
  8
0
 62
     0
  5
5B2
 10
8.90625
 20
9.9375
 30
0.0
 11
8.90625
 21
9.9375
 31
0.0
  0
LINE
  8
0
 62
     0
  5
5B3
 10
8.96875
 20
9.9375
 30
0.0
 11
8.96875
 21
9.9375
 31
0.0
  0
LINE
  8
0
 62
     0
  5
5B4
 10
9.03125
 20
9.9375
 30
0.0
 11
9.03125
 21
9.9375
 31
0.0
  0
LINE
  8
0
 62
     0
  5
5B5
 10
9.09375
 20
9.9375
 30
0.0
 11
9.09375
 21
9.9375
 31
0.0
  0
LINE
  8
0
 62
     0
  5
5B6
 10
9.15625
 20
9.9375
 30
0.0
 11
9.15625
 21
9.9375
 31
0.0
  0
LINE
  8
0
 62
     0
  5
5B7
 10
9.21875
 20
9.9375
 30
0.0
 11
9.21875
 21
9.9375
 31
0.0
  0
LINE
  8
0
 62
     0
  5
5B8
 10
9.28125
 20
9.9375
 30
0.0
 11
9.28125
 21
9.9375
 31
0.0
  0
LINE
  8
0
 62
     0
  5
5B9
 10
9.34375
 20
9.9375
 30
0.0
 11
9.34375
 21
9.9375
 31
0.0
  0
LINE
  8
0
 62
     0
  5
5BA
 10
9.40625
 20
9.9375
 30
0.0
 11
9.40625
 21
9.9375
 31
0.0
  0
LINE
  8
0
 62
     0
  5
5BB
 10
9.46875
 20
9.9375
 30
0.0
 11
9.46875
 21
9.9375
 31
0.0
  0
LINE
  8
0
 62
     0
  5
5BC
 10
9.53125
 20
9.9375
 30
0.0
 11
9.53125
 21
9.9375
 31
0.0
  0
LINE
  8
0
 62
     0
  5
5BD
 10
9.59375
 20
9.9375
 30
0.0
 11
9.59375
 21
9.9375
 31
0.0
  0
LINE
  8
0
 62
     0
  5
5BE
 10
9.65625
 20
9.9375
 30
0.0
 11
9.65625
 21
9.9375
 31
0.0
  0
LINE
  8
0
 62
     0
  5
5BF
 10
9.71875
 20
9.9375
 30
0.0
 11
9.71875
 21
9.9375
 31
0.0
  0
LINE
  8
0
 62
     0
  5
5C0
 10
9.78125
 20
9.9375
 30
0.0
 11
9.78125
 21
9.9375
 31
0.0
  0
LINE
  8
0
 62
     0
  5
5C1
 10
10.09375
 20
9.9375
 30
0.0
 11
10.09375
 21
9.9375
 31
0.0
  0
LINE
  8
0
 62
     0
  5
5C2
 10
10.15625
 20
9.9375
 30
0.0
 11
10.15625
 21
9.9375
 31
0.0
  0
LINE
  8
0
 62
     0
  5
5C3
 10
9.96875
 20
9.9375
 30
0.0
 11
9.96875
 21
9.9375
 31
0.0
  0
LINE
  8
0
 62
     0
  5
5C4
 10
8.4375
 20
10.0
 30
0.0
 11
8.4375
 21
10.0
 31
0.0
  0
LINE
  8
0
 62
     0
  5
5C5
 10
8.5
 20
10.0
 30
0.0
 11
8.5
 21
10.0
 31
0.0
  0
LINE
  8
0
 62
     0
  5
5C6
 10
8.5625
 20
10.0
 30
0.0
 11
8.5625
 21
10.0
 31
0.0
  0
LINE
  8
0
 62
     0
  5
5C7
 10
8.625
 20
10.0
 30
0.0
 11
8.625
 21
10.0
 31
0.0
  0
LINE
  8
0
 62
     0
  5
5C8
 10
8.6875
 20
10.0
 30
0.0
 11
8.6875
 21
10.0
 31
0.0
  0
LINE
  8
0
 62
     0
  5
5C9
 10
8.75
 20
10.0
 30
0.0
 11
8.75
 21
10.0
 31
0.0
  0
LINE
  8
0
 62
     0
  5
5CA
 10
8.8125
 20
10.0
 30
0.0
 11
8.8125
 21
10.0
 31
0.0
  0
LINE
  8
0
 62
     0
  5
5CB
 10
8.875
 20
10.0
 30
0.0
 11
8.875
 21
10.0
 31
0.0
  0
LINE
  8
0
 62
     0
  5
5CC
 10
8.9375
 20
10.0
 30
0.0
 11
8.9375
 21
10.0
 31
0.0
  0
LINE
  8
0
 62
     0
  5
5CD
 10
9.0
 20
10.0
 30
0.0
 11
9.0
 21
10.0
 31
0.0
  0
LINE
  8
0
 62
     0
  5
5CE
 10
9.0625
 20
10.0
 30
0.0
 11
9.0625
 21
10.0
 31
0.0
  0
LINE
  8
0
 62
     0
  5
5CF
 10
9.125
 20
10.0
 30
0.0
 11
9.125
 21
10.0
 31
0.0
  0
LINE
  8
0
 62
     0
  5
5D0
 10
9.1875
 20
10.0
 30
0.0
 11
9.1875
 21
10.0
 31
0.0
  0
LINE
  8
0
 62
     0
  5
5D1
 10
9.25
 20
10.0
 30
0.0
 11
9.25
 21
10.0
 31
0.0
  0
LINE
  8
0
 62
     0
  5
5D2
 10
9.3125
 20
10.0
 30
0.0
 11
9.3125
 21
10.0
 31
0.0
  0
LINE
  8
0
 62
     0
  5
5D3
 10
9.375
 20
10.0
 30
0.0
 11
9.375
 21
10.0
 31
0.0
  0
LINE
  8
0
 62
     0
  5
5D4
 10
9.4375
 20
10.0
 30
0.0
 11
9.4375
 21
10.0
 31
0.0
  0
LINE
  8
0
 62
     0
  5
5D5
 10
9.5
 20
10.0
 30
0.0
 11
9.5
 21
10.0
 31
0.0
  0
LINE
  8
0
 62
     0
  5
5D6
 10
9.5625
 20
10.0
 30
0.0
 11
9.5625
 21
10.0
 31
0.0
  0
LINE
  8
0
 62
     0
  5
5D7
 10
9.625
 20
10.0
 30
0.0
 11
9.625
 21
10.0
 31
0.0
  0
LINE
  8
0
 62
     0
  5
5D8
 10
9.6875
 20
10.0
 30
0.0
 11
9.6875
 21
10.0
 31
0.0
  0
LINE
  8
0
 62
     0
  5
5D9
 10
9.75
 20
10.0
 30
0.0
 11
9.75
 21
10.0
 31
0.0
  0
LINE
  8
0
 62
     0
  5
5DA
 10
9.8125
 20
10.0
 30
0.0
 11
9.8125
 21
10.0
 31
0.0
  0
LINE
  8
0
 62
     0
  5
5DB
 10
9.875
 20
10.0
 30
0.0
 11
9.875
 21
10.0
 31
0.0
  0
LINE
  8
0
 62
     0
  5
5DC
 10
9.9375
 20
10.0
 30
0.0
 11
9.9375
 21
10.0
 31
0.0
  0
LINE
  8
0
 62
     0
  5
5DD
 10
8.40625
 20
10.0625
 30
0.0
 11
8.40625
 21
10.0625
 31
0.0
  0
LINE
  8
0
 62
     0
  5
5DE
 10
8.46875
 20
10.0625
 30
0.0
 11
8.46875
 21
10.0625
 31
0.0
  0
LINE
  8
0
 62
     0
  5
5DF
 10
8.53125
 20
10.0625
 30
0.0
 11
8.53125
 21
10.0625
 31
0.0
  0
LINE
  8
0
 62
     0
  5
5E0
 10
8.59375
 20
10.0625
 30
0.0
 11
8.59375
 21
10.0625
 31
0.0
  0
LINE
  8
0
 62
     0
  5
5E1
 10
8.65625
 20
10.0625
 30
0.0
 11
8.65625
 21
10.0625
 31
0.0
  0
LINE
  8
0
 62
     0
  5
5E2
 10
8.71875
 20
10.0625
 30
0.0
 11
8.71875
 21
10.0625
 31
0.0
  0
LINE
  8
0
 62
     0
  5
5E3
 10
8.78125
 20
10.0625
 30
0.0
 11
8.78125
 21
10.0625
 31
0.0
  0
LINE
  8
0
 62
     0
  5
5E4
 10
8.84375
 20
10.0625
 30
0.0
 11
8.84375
 21
10.0625
 31
0.0
  0
LINE
  8
0
 62
     0
  5
5E5
 10
8.90625
 20
10.0625
 30
0.0
 11
8.90625
 21
10.0625
 31
0.0
  0
LINE
  8
0
 62
     0
  5
5E6
 10
8.96875
 20
10.0625
 30
0.0
 11
8.96875
 21
10.0625
 31
0.0
  0
LINE
  8
0
 62
     0
  5
5E7
 10
9.03125
 20
10.0625
 30
0.0
 11
9.03125
 21
10.0625
 31
0.0
  0
LINE
  8
0
 62
     0
  5
5E8
 10
9.09375
 20
10.0625
 30
0.0
 11
9.09375
 21
10.0625
 31
0.0
  0
LINE
  8
0
 62
     0
  5
5E9
 10
9.15625
 20
10.0625
 30
0.0
 11
9.15625
 21
10.0625
 31
0.0
  0
LINE
  8
0
 62
     0
  5
5EA
 10
9.21875
 20
10.0625
 30
0.0
 11
9.21875
 21
10.0625
 31
0.0
  0
LINE
  8
0
 62
     0
  5
5EB
 10
9.28125
 20
10.0625
 30
0.0
 11
9.28125
 21
10.0625
 31
0.0
  0
LINE
  8
0
 62
     0
  5
5EC
 10
9.34375
 20
10.0625
 30
0.0
 11
9.34375
 21
10.0625
 31
0.0
  0
LINE
  8
0
 62
     0
  5
5ED
 10
9.40625
 20
10.0625
 30
0.0
 11
9.40625
 21
10.0625
 31
0.0
  0
LINE
  8
0
 62
     0
  5
5EE
 10
9.46875
 20
10.0625
 30
0.0
 11
9.46875
 21
10.0625
 31
0.0
  0
LINE
  8
0
 62
     0
  5
5EF
 10
9.53125
 20
10.0625
 30
0.0
 11
9.53125
 21
10.0625
 31
0.0
  0
LINE
  8
0
 62
     0
  5
5F0
 10
9.59375
 20
10.0625
 30
0.0
 11
9.59375
 21
10.0625
 31
0.0
  0
LINE
  8
0
 62
     0
  5
5F1
 10
9.65625
 20
10.0625
 30
0.0
 11
9.65625
 21
10.0625
 31
0.0
  0
LINE
  8
0
 62
     0
  5
5F2
 10
9.71875
 20
10.0625
 30
0.0
 11
9.71875
 21
10.0625
 31
0.0
  0
LINE
  8
0
 62
     0
  5
5F3
 10
9.78125
 20
10.0625
 30
0.0
 11
9.78125
 21
10.0625
 31
0.0
  0
LINE
  8
0
 62
     0
  5
5F4
 10
10.09375
 20
10.0625
 30
0.0
 11
10.09375
 21
10.0625
 31
0.0
  0
LINE
  8
0
 62
     0
  5
5F5
 10
10.15625
 20
10.0625
 30
0.0
 11
10.15625
 21
10.0625
 31
0.0
  0
LINE
  8
0
 62
     0
  5
5F6
 10
8.3125
 20
10.125
 30
0.0
 11
8.3125
 21
10.125
 31
0.0
  0
LINE
  8
0
 62
     0
  5
5F7
 10
8.375
 20
10.125
 30
0.0
 11
8.375
 21
10.125
 31
0.0
  0
LINE
  8
0
 62
     0
  5
5F8
 10
8.4375
 20
10.125
 30
0.0
 11
8.4375
 21
10.125
 31
0.0
  0
LINE
  8
0
 62
     0
  5
5F9
 10
8.5
 20
10.125
 30
0.0
 11
8.5
 21
10.125
 31
0.0
  0
LINE
  8
0
 62
     0
  5
5FA
 10
8.5625
 20
10.125
 30
0.0
 11
8.5625
 21
10.125
 31
0.0
  0
LINE
  8
0
 62
     0
  5
5FB
 10
8.625
 20
10.125
 30
0.0
 11
8.625
 21
10.125
 31
0.0
  0
LINE
  8
0
 62
     0
  5
5FC
 10
8.6875
 20
10.125
 30
0.0
 11
8.6875
 21
10.125
 31
0.0
  0
LINE
  8
0
 62
     0
  5
5FD
 10
8.75
 20
10.125
 30
0.0
 11
8.75
 21
10.125
 31
0.0
  0
LINE
  8
0
 62
     0
  5
5FE
 10
8.8125
 20
10.125
 30
0.0
 11
8.8125
 21
10.125
 31
0.0
  0
LINE
  8
0
 62
     0
  5
5FF
 10
8.875
 20
10.125
 30
0.0
 11
8.875
 21
10.125
 31
0.0
  0
LINE
  8
0
 62
     0
  5
600
 10
8.9375
 20
10.125
 30
0.0
 11
8.9375
 21
10.125
 31
0.0
  0
LINE
  8
0
 62
     0
  5
601
 10
9.0
 20
10.125
 30
0.0
 11
9.0
 21
10.125
 31
0.0
  0
LINE
  8
0
 62
     0
  5
602
 10
9.0625
 20
10.125
 30
0.0
 11
9.0625
 21
10.125
 31
0.0
  0
LINE
  8
0
 62
     0
  5
603
 10
9.125
 20
10.125
 30
0.0
 11
9.125
 21
10.125
 31
0.0
  0
LINE
  8
0
 62
     0
  5
604
 10
9.1875
 20
10.125
 30
0.0
 11
9.1875
 21
10.125
 31
0.0
  0
LINE
  8
0
 62
     0
  5
605
 10
9.25
 20
10.125
 30
0.0
 11
9.25
 21
10.125
 31
0.0
  0
LINE
  8
0
 62
     0
  5
606
 10
9.3125
 20
10.125
 30
0.0
 11
9.3125
 21
10.125
 31
0.0
  0
LINE
  8
0
 62
     0
  5
607
 10
9.375
 20
10.125
 30
0.0
 11
9.375
 21
10.125
 31
0.0
  0
LINE
  8
0
 62
     0
  5
608
 10
9.4375
 20
10.125
 30
0.0
 11
9.4375
 21
10.125
 31
0.0
  0
LINE
  8
0
 62
     0
  5
609
 10
9.5
 20
10.125
 30
0.0
 11
9.5
 21
10.125
 31
0.0
  0
LINE
  8
0
 62
     0
  5
60A
 10
9.5625
 20
10.125
 30
0.0
 11
9.5625
 21
10.125
 31
0.0
  0
LINE
  8
0
 62
     0
  5
60B
 10
10.125
 20
10.125
 30
0.0
 11
10.125
 21
10.125
 31
0.0
  0
LINE
  8
0
 62
     0
  5
60C
 10
10.1875
 20
10.125
 30
0.0
 11
10.1875
 21
10.125
 31
0.0
  0
LINE
  8
0
 62
     0
  5
60D
 10
10.25
 20
10.125
 30
0.0
 11
10.25
 21
10.125
 31
0.0
  0
LINE
  8
0
 62
     0
  5
60E
 10
10.3125
 20
10.125
 30
0.0
 11
10.3125
 21
10.125
 31
0.0
  0
LINE
  8
0
 62
     0
  5
60F
 10
10.375
 20
10.125
 30
0.0
 11
10.375
 21
10.125
 31
0.0
  0
LINE
  8
0
 62
     0
  5
610
 10
8.28125
 20
10.1875
 30
0.0
 11
8.28125
 21
10.1875
 31
0.0
  0
LINE
  8
0
 62
     0
  5
611
 10
8.34375
 20
10.1875
 30
0.0
 11
8.34375
 21
10.1875
 31
0.0
  0
LINE
  8
0
 62
     0
  5
612
 10
8.40625
 20
10.1875
 30
0.0
 11
8.40625
 21
10.1875
 31
0.0
  0
LINE
  8
0
 62
     0
  5
613
 10
8.46875
 20
10.1875
 30
0.0
 11
8.46875
 21
10.1875
 31
0.0
  0
LINE
  8
0
 62
     0
  5
614
 10
8.53125
 20
10.1875
 30
0.0
 11
8.53125
 21
10.1875
 31
0.0
  0
LINE
  8
0
 62
     0
  5
615
 10
8.59375
 20
10.1875
 30
0.0
 11
8.59375
 21
10.1875
 31
0.0
  0
LINE
  8
0
 62
     0
  5
616
 10
8.65625
 20
10.1875
 30
0.0
 11
8.65625
 21
10.1875
 31
0.0
  0
LINE
  8
0
 62
     0
  5
617
 10
8.71875
 20
10.1875
 30
0.0
 11
8.71875
 21
10.1875
 31
0.0
  0
LINE
  8
0
 62
     0
  5
618
 10
8.78125
 20
10.1875
 30
0.0
 11
8.78125
 21
10.1875
 31
0.0
  0
LINE
  8
0
 62
     0
  5
619
 10
8.84375
 20
10.1875
 30
0.0
 11
8.84375
 21
10.1875
 31
0.0
  0
LINE
  8
0
 62
     0
  5
61A
 10
8.90625
 20
10.1875
 30
0.0
 11
8.90625
 21
10.1875
 31
0.0
  0
LINE
  8
0
 62
     0
  5
61B
 10
8.96875
 20
10.1875
 30
0.0
 11
8.96875
 21
10.1875
 31
0.0
  0
LINE
  8
0
 62
     0
  5
61C
 10
9.03125
 20
10.1875
 30
0.0
 11
9.03125
 21
10.1875
 31
0.0
  0
LINE
  8
0
 62
     0
  5
61D
 10
9.09375
 20
10.1875
 30
0.0
 11
9.09375
 21
10.1875
 31
0.0
  0
LINE
  8
0
 62
     0
  5
61E
 10
9.15625
 20
10.1875
 30
0.0
 11
9.15625
 21
10.1875
 31
0.0
  0
LINE
  8
0
 62
     0
  5
61F
 10
9.21875
 20
10.1875
 30
0.0
 11
9.21875
 21
10.1875
 31
0.0
  0
LINE
  8
0
 62
     0
  5
620
 10
9.28125
 20
10.1875
 30
0.0
 11
9.28125
 21
10.1875
 31
0.0
  0
LINE
  8
0
 62
     0
  5
621
 10
9.34375
 20
10.1875
 30
0.0
 11
9.34375
 21
10.1875
 31
0.0
  0
LINE
  8
0
 62
     0
  5
622
 10
9.40625
 20
10.1875
 30
0.0
 11
9.40625
 21
10.1875
 31
0.0
  0
LINE
  8
0
 62
     0
  5
623
 10
10.15625
 20
10.1875
 30
0.0
 11
10.15625
 21
10.1875
 31
0.0
  0
LINE
  8
0
 62
     0
  5
624
 10
10.21875
 20
10.1875
 30
0.0
 11
10.21875
 21
10.1875
 31
0.0
  0
LINE
  8
0
 62
     0
  5
625
 10
10.28125
 20
10.1875
 30
0.0
 11
10.28125
 21
10.1875
 31
0.0
  0
LINE
  8
0
 62
     0
  5
626
 10
10.34375
 20
10.1875
 30
0.0
 11
10.34375
 21
10.1875
 31
0.0
  0
LINE
  8
0
 62
     0
  5
627
 10
10.40625
 20
10.1875
 30
0.0
 11
10.40625
 21
10.1875
 31
0.0
  0
LINE
  8
0
 62
     0
  5
628
 10
10.46875
 20
10.1875
 30
0.0
 11
10.46875
 21
10.1875
 31
0.0
  0
LINE
  8
0
 62
     0
  5
629
 10
10.53125
 20
10.1875
 30
0.0
 11
10.53125
 21
10.1875
 31
0.0
  0
LINE
  8
0
 62
     0
  5
62A
 10
8.1875
 20
10.25
 30
0.0
 11
8.1875
 21
10.25
 31
0.0
  0
LINE
  8
0
 62
     0
  5
62B
 10
8.25
 20
10.25
 30
0.0
 11
8.25
 21
10.25
 31
0.0
  0
LINE
  8
0
 62
     0
  5
62C
 10
8.3125
 20
10.25
 30
0.0
 11
8.3125
 21
10.25
 31
0.0
  0
LINE
  8
0
 62
     0
  5
62D
 10
8.375
 20
10.25
 30
0.0
 11
8.375
 21
10.25
 31
0.0
  0
LINE
  8
0
 62
     0
  5
62E
 10
8.4375
 20
10.25
 30
0.0
 11
8.4375
 21
10.25
 31
0.0
  0
LINE
  8
0
 62
     0
  5
62F
 10
8.5
 20
10.25
 30
0.0
 11
8.5
 21
10.25
 31
0.0
  0
LINE
  8
0
 62
     0
  5
630
 10
8.5625
 20
10.25
 30
0.0
 11
8.5625
 21
10.25
 31
0.0
  0
LINE
  8
0
 62
     0
  5
631
 10
8.625
 20
10.25
 30
0.0
 11
8.625
 21
10.25
 31
0.0
  0
LINE
  8
0
 62
     0
  5
632
 10
8.6875
 20
10.25
 30
0.0
 11
8.6875
 21
10.25
 31
0.0
  0
LINE
  8
0
 62
     0
  5
633
 10
8.75
 20
10.25
 30
0.0
 11
8.75
 21
10.25
 31
0.0
  0
LINE
  8
0
 62
     0
  5
634
 10
8.8125
 20
10.25
 30
0.0
 11
8.8125
 21
10.25
 31
0.0
  0
LINE
  8
0
 62
     0
  5
635
 10
8.875
 20
10.25
 30
0.0
 11
8.875
 21
10.25
 31
0.0
  0
LINE
  8
0
 62
     0
  5
636
 10
8.9375
 20
10.25
 30
0.0
 11
8.9375
 21
10.25
 31
0.0
  0
LINE
  8
0
 62
     0
  5
637
 10
9.0
 20
10.25
 30
0.0
 11
9.0
 21
10.25
 31
0.0
  0
LINE
  8
0
 62
     0
  5
638
 10
9.0625
 20
10.25
 30
0.0
 11
9.0625
 21
10.25
 31
0.0
  0
LINE
  8
0
 62
     0
  5
639
 10
9.125
 20
10.25
 30
0.0
 11
9.125
 21
10.25
 31
0.0
  0
LINE
  8
0
 62
     0
  5
63A
 10
9.1875
 20
10.25
 30
0.0
 11
9.1875
 21
10.25
 31
0.0
  0
LINE
  8
0
 62
     0
  5
63B
 10
10.1875
 20
10.25
 30
0.0
 11
10.1875
 21
10.25
 31
0.0
  0
LINE
  8
0
 62
     0
  5
63C
 10
10.25
 20
10.25
 30
0.0
 11
10.25
 21
10.25
 31
0.0
  0
LINE
  8
0
 62
     0
  5
63D
 10
10.3125
 20
10.25
 30
0.0
 11
10.3125
 21
10.25
 31
0.0
  0
LINE
  8
0
 62
     0
  5
63E
 10
10.375
 20
10.25
 30
0.0
 11
10.375
 21
10.25
 31
0.0
  0
LINE
  8
0
 62
     0
  5
63F
 10
10.4375
 20
10.25
 30
0.0
 11
10.4375
 21
10.25
 31
0.0
  0
LINE
  8
0
 62
     0
  5
640
 10
10.5
 20
10.25
 30
0.0
 11
10.5
 21
10.25
 31
0.0
  0
LINE
  8
0
 62
     0
  5
641
 10
10.5625
 20
10.25
 30
0.0
 11
10.5625
 21
10.25
 31
0.0
  0
LINE
  8
0
 62
     0
  5
642
 10
10.625
 20
10.25
 30
0.0
 11
10.625
 21
10.25
 31
0.0
  0
LINE
  8
0
 62
     0
  5
643
 10
10.6875
 20
10.25
 30
0.0
 11
10.6875
 21
10.25
 31
0.0
  0
LINE
  8
0
 62
     0
  5
644
 10
10.75
 20
10.25
 30
0.0
 11
10.75
 21
10.25
 31
0.0
  0
LINE
  8
0
 62
     0
  5
645
 10
8.15625
 20
10.3125
 30
0.0
 11
8.15625
 21
10.3125
 31
0.0
  0
LINE
  8
0
 62
     0
  5
646
 10
8.21875
 20
10.3125
 30
0.0
 11
8.21875
 21
10.3125
 31
0.0
  0
LINE
  8
0
 62
     0
  5
647
 10
8.28125
 20
10.3125
 30
0.0
 11
8.28125
 21
10.3125
 31
0.0
  0
LINE
  8
0
 62
     0
  5
648
 10
8.34375
 20
10.3125
 30
0.0
 11
8.34375
 21
10.3125
 31
0.0
  0
LINE
  8
0
 62
     0
  5
649
 10
8.40625
 20
10.3125
 30
0.0
 11
8.40625
 21
10.3125
 31
0.0
  0
LINE
  8
0
 62
     0
  5
64A
 10
8.46875
 20
10.3125
 30
0.0
 11
8.46875
 21
10.3125
 31
0.0
  0
LINE
  8
0
 62
     0
  5
64B
 10
8.53125
 20
10.3125
 30
0.0
 11
8.53125
 21
10.3125
 31
0.0
  0
LINE
  8
0
 62
     0
  5
64C
 10
8.59375
 20
10.3125
 30
0.0
 11
8.59375
 21
10.3125
 31
0.0
  0
LINE
  8
0
 62
     0
  5
64D
 10
8.65625
 20
10.3125
 30
0.0
 11
8.65625
 21
10.3125
 31
0.0
  0
LINE
  8
0
 62
     0
  5
64E
 10
8.71875
 20
10.3125
 30
0.0
 11
8.71875
 21
10.3125
 31
0.0
  0
LINE
  8
0
 62
     0
  5
64F
 10
8.78125
 20
10.3125
 30
0.0
 11
8.78125
 21
10.3125
 31
0.0
  0
LINE
  8
0
 62
     0
  5
650
 10
8.84375
 20
10.3125
 30
0.0
 11
8.84375
 21
10.3125
 31
0.0
  0
LINE
  8
0
 62
     0
  5
651
 10
8.90625
 20
10.3125
 30
0.0
 11
8.90625
 21
10.3125
 31
0.0
  0
LINE
  8
0
 62
     0
  5
652
 10
8.96875
 20
10.3125
 30
0.0
 11
8.96875
 21
10.3125
 31
0.0
  0
LINE
  8
0
 62
     0
  5
653
 10
9.03125
 20
10.3125
 30
0.0
 11
9.03125
 21
10.3125
 31
0.0
  0
LINE
  8
0
 62
     0
  5
654
 10
10.28125
 20
10.3125
 30
0.0
 11
10.28125
 21
10.3125
 31
0.0
  0
LINE
  8
0
 62
     0
  5
655
 10
10.34375
 20
10.3125
 30
0.0
 11
10.34375
 21
10.3125
 31
0.0
  0
LINE
  8
0
 62
     0
  5
656
 10
10.40625
 20
10.3125
 30
0.0
 11
10.40625
 21
10.3125
 31
0.0
  0
LINE
  8
0
 62
     0
  5
657
 10
10.46875
 20
10.3125
 30
0.0
 11
10.46875
 21
10.3125
 31
0.0
  0
LINE
  8
0
 62
     0
  5
658
 10
10.53125
 20
10.3125
 30
0.0
 11
10.53125
 21
10.3125
 31
0.0
  0
LINE
  8
0
 62
     0
  5
659
 10
10.59375
 20
10.3125
 30
0.0
 11
10.59375
 21
10.3125
 31
0.0
  0
LINE
  8
0
 62
     0
  5
65A
 10
10.65625
 20
10.3125
 30
0.0
 11
10.65625
 21
10.3125
 31
0.0
  0
LINE
  8
0
 62
     0
  5
65B
 10
10.71875
 20
10.3125
 30
0.0
 11
10.71875
 21
10.3125
 31
0.0
  0
LINE
  8
0
 62
     0
  5
65C
 10
10.78125
 20
10.3125
 30
0.0
 11
10.78125
 21
10.3125
 31
0.0
  0
LINE
  8
0
 62
     0
  5
65D
 10
10.84375
 20
10.3125
 30
0.0
 11
10.84375
 21
10.3125
 31
0.0
  0
LINE
  8
0
 62
     0
  5
65E
 10
10.90625
 20
10.3125
 30
0.0
 11
10.90625
 21
10.3125
 31
0.0
  0
LINE
  8
0
 62
     0
  5
65F
 10
8.0625
 20
10.375
 30
0.0
 11
8.0625
 21
10.375
 31
0.0
  0
LINE
  8
0
 62
     0
  5
660
 10
8.125
 20
10.375
 30
0.0
 11
8.125
 21
10.375
 31
0.0
  0
LINE
  8
0
 62
     0
  5
661
 10
8.1875
 20
10.375
 30
0.0
 11
8.1875
 21
10.375
 31
0.0
  0
LINE
  8
0
 62
     0
  5
662
 10
8.25
 20
10.375
 30
0.0
 11
8.25
 21
10.375
 31
0.0
  0
LINE
  8
0
 62
     0
  5
663
 10
8.3125
 20
10.375
 30
0.0
 11
8.3125
 21
10.375
 31
0.0
  0
LINE
  8
0
 62
     0
  5
664
 10
8.375
 20
10.375
 30
0.0
 11
8.375
 21
10.375
 31
0.0
  0
LINE
  8
0
 62
     0
  5
665
 10
8.4375
 20
10.375
 30
0.0
 11
8.4375
 21
10.375
 31
0.0
  0
LINE
  8
0
 62
     0
  5
666
 10
8.5
 20
10.375
 30
0.0
 11
8.5
 21
10.375
 31
0.0
  0
LINE
  8
0
 62
     0
  5
667
 10
8.5625
 20
10.375
 30
0.0
 11
8.5625
 21
10.375
 31
0.0
  0
LINE
  8
0
 62
     0
  5
668
 10
8.625
 20
10.375
 30
0.0
 11
8.625
 21
10.375
 31
0.0
  0
LINE
  8
0
 62
     0
  5
669
 10
8.6875
 20
10.375
 30
0.0
 11
8.6875
 21
10.375
 31
0.0
  0
LINE
  8
0
 62
     0
  5
66A
 10
8.75
 20
10.375
 30
0.0
 11
8.75
 21
10.375
 31
0.0
  0
LINE
  8
0
 62
     0
  5
66B
 10
8.8125
 20
10.375
 30
0.0
 11
8.8125
 21
10.375
 31
0.0
  0
LINE
  8
0
 62
     0
  5
66C
 10
10.3125
 20
10.375
 30
0.0
 11
10.3125
 21
10.375
 31
0.0
  0
LINE
  8
0
 62
     0
  5
66D
 10
10.375
 20
10.375
 30
0.0
 11
10.375
 21
10.375
 31
0.0
  0
LINE
  8
0
 62
     0
  5
66E
 10
10.4375
 20
10.375
 30
0.0
 11
10.4375
 21
10.375
 31
0.0
  0
LINE
  8
0
 62
     0
  5
66F
 10
10.5
 20
10.375
 30
0.0
 11
10.5
 21
10.375
 31
0.0
  0
LINE
  8
0
 62
     0
  5
670
 10
10.5625
 20
10.375
 30
0.0
 11
10.5625
 21
10.375
 31
0.0
  0
LINE
  8
0
 62
     0
  5
671
 10
10.625
 20
10.375
 30
0.0
 11
10.625
 21
10.375
 31
0.0
  0
LINE
  8
0
 62
     0
  5
672
 10
10.6875
 20
10.375
 30
0.0
 11
10.6875
 21
10.375
 31
0.0
  0
LINE
  8
0
 62
     0
  5
673
 10
10.75
 20
10.375
 30
0.0
 11
10.75
 21
10.375
 31
0.0
  0
LINE
  8
0
 62
     0
  5
674
 10
10.8125
 20
10.375
 30
0.0
 11
10.8125
 21
10.375
 31
0.0
  0
LINE
  8
0
 62
     0
  5
675
 10
10.875
 20
10.375
 30
0.0
 11
10.875
 21
10.375
 31
0.0
  0
LINE
  8
0
 62
     0
  5
676
 10
10.9375
 20
10.375
 30
0.0
 11
10.9375
 21
10.375
 31
0.0
  0
LINE
  8
0
 62
     0
  5
677
 10
11.0
 20
10.375
 30
0.0
 11
11.0
 21
10.375
 31
0.0
  0
LINE
  8
0
 62
     0
  5
678
 10
11.0625
 20
10.375
 30
0.0
 11
11.0625
 21
10.375
 31
0.0
  0
LINE
  8
0
 62
     0
  5
679
 10
11.125
 20
10.375
 30
0.0
 11
11.125
 21
10.375
 31
0.0
  0
LINE
  8
0
 62
     0
  5
67A
 10
7.96875
 20
10.4375
 30
0.0
 11
7.96875
 21
10.4375
 31
0.0
  0
LINE
  8
0
 62
     0
  5
67B
 10
8.03125
 20
10.4375
 30
0.0
 11
8.03125
 21
10.4375
 31
0.0
  0
LINE
  8
0
 62
     0
  5
67C
 10
8.09375
 20
10.4375
 30
0.0
 11
8.09375
 21
10.4375
 31
0.0
  0
LINE
  8
0
 62
     0
  5
67D
 10
8.15625
 20
10.4375
 30
0.0
 11
8.15625
 21
10.4375
 31
0.0
  0
LINE
  8
0
 62
     0
  5
67E
 10
8.21875
 20
10.4375
 30
0.0
 11
8.21875
 21
10.4375
 31
0.0
  0
LINE
  8
0
 62
     0
  5
67F
 10
8.28125
 20
10.4375
 30
0.0
 11
8.28125
 21
10.4375
 31
0.0
  0
LINE
  8
0
 62
     0
  5
680
 10
8.34375
 20
10.4375
 30
0.0
 11
8.34375
 21
10.4375
 31
0.0
  0
LINE
  8
0
 62
     0
  5
681
 10
8.40625
 20
10.4375
 30
0.0
 11
8.40625
 21
10.4375
 31
0.0
  0
LINE
  8
0
 62
     0
  5
682
 10
8.46875
 20
10.4375
 30
0.0
 11
8.46875
 21
10.4375
 31
0.0
  0
LINE
  8
0
 62
     0
  5
683
 10
8.53125
 20
10.4375
 30
0.0
 11
8.53125
 21
10.4375
 31
0.0
  0
LINE
  8
0
 62
     0
  5
684
 10
8.59375
 20
10.4375
 30
0.0
 11
8.59375
 21
10.4375
 31
0.0
  0
LINE
  8
0
 62
     0
  5
685
 10
10.34375
 20
10.4375
 30
0.0
 11
10.34375
 21
10.4375
 31
0.0
  0
LINE
  8
0
 62
     0
  5
686
 10
10.40625
 20
10.4375
 30
0.0
 11
10.40625
 21
10.4375
 31
0.0
  0
LINE
  8
0
 62
     0
  5
687
 10
10.46875
 20
10.4375
 30
0.0
 11
10.46875
 21
10.4375
 31
0.0
  0
LINE
  8
0
 62
     0
  5
688
 10
10.53125
 20
10.4375
 30
0.0
 11
10.53125
 21
10.4375
 31
0.0
  0
LINE
  8
0
 62
     0
  5
689
 10
10.59375
 20
10.4375
 30
0.0
 11
10.59375
 21
10.4375
 31
0.0
  0
LINE
  8
0
 62
     0
  5
68A
 10
10.65625
 20
10.4375
 30
0.0
 11
10.65625
 21
10.4375
 31
0.0
  0
LINE
  8
0
 62
     0
  5
68B
 10
10.71875
 20
10.4375
 30
0.0
 11
10.71875
 21
10.4375
 31
0.0
  0
LINE
  8
0
 62
     0
  5
68C
 10
10.78125
 20
10.4375
 30
0.0
 11
10.78125
 21
10.4375
 31
0.0
  0
LINE
  8
0
 62
     0
  5
68D
 10
10.84375
 20
10.4375
 30
0.0
 11
10.84375
 21
10.4375
 31
0.0
  0
LINE
  8
0
 62
     0
  5
68E
 10
10.90625
 20
10.4375
 30
0.0
 11
10.90625
 21
10.4375
 31
0.0
  0
LINE
  8
0
 62
     0
  5
68F
 10
10.96875
 20
10.4375
 30
0.0
 11
10.96875
 21
10.4375
 31
0.0
  0
LINE
  8
0
 62
     0
  5
690
 10
11.03125
 20
10.4375
 30
0.0
 11
11.03125
 21
10.4375
 31
0.0
  0
LINE
  8
0
 62
     0
  5
691
 10
11.09375
 20
10.4375
 30
0.0
 11
11.09375
 21
10.4375
 31
0.0
  0
LINE
  8
0
 62
     0
  5
692
 10
11.15625
 20
10.4375
 30
0.0
 11
11.15625
 21
10.4375
 31
0.0
  0
LINE
  8
0
 62
     0
  5
693
 10
11.21875
 20
10.4375
 30
0.0
 11
11.21875
 21
10.4375
 31
0.0
  0
LINE
  8
0
 62
     0
  5
694
 10
11.28125
 20
10.4375
 30
0.0
 11
11.28125
 21
10.4375
 31
0.0
  0
LINE
  8
0
 62
     0
  5
695
 10
11.34375
 20
10.4375
 30
0.0
 11
11.34375
 21
10.4375
 31
0.0
  0
LINE
  8
0
 62
     0
  5
696
 10
7.9375
 20
10.5
 30
0.0
 11
7.9375
 21
10.5
 31
0.0
  0
LINE
  8
0
 62
     0
  5
697
 10
8.0
 20
10.5
 30
0.0
 11
8.0
 21
10.5
 31
0.0
  0
LINE
  8
0
 62
     0
  5
698
 10
8.0625
 20
10.5
 30
0.0
 11
8.0625
 21
10.5
 31
0.0
  0
LINE
  8
0
 62
     0
  5
699
 10
8.125
 20
10.5
 30
0.0
 11
8.125
 21
10.5
 31
0.0
  0
LINE
  8
0
 62
     0
  5
69A
 10
8.1875
 20
10.5
 30
0.0
 11
8.1875
 21
10.5
 31
0.0
  0
LINE
  8
0
 62
     0
  5
69B
 10
8.25
 20
10.5
 30
0.0
 11
8.25
 21
10.5
 31
0.0
  0
LINE
  8
0
 62
     0
  5
69C
 10
8.3125
 20
10.5
 30
0.0
 11
8.3125
 21
10.5
 31
0.0
  0
LINE
  8
0
 62
     0
  5
69D
 10
8.375
 20
10.5
 30
0.0
 11
8.375
 21
10.5
 31
0.0
  0
LINE
  8
0
 62
     0
  5
69E
 10
8.4375
 20
10.5
 30
0.0
 11
8.4375
 21
10.5
 31
0.0
  0
LINE
  8
0
 62
     0
  5
69F
 10
10.375
 20
10.5
 30
0.0
 11
10.375
 21
10.5
 31
0.0
  0
LINE
  8
0
 62
     0
  5
6A0
 10
10.4375
 20
10.5
 30
0.0
 11
10.4375
 21
10.5
 31
0.0
  0
LINE
  8
0
 62
     0
  5
6A1
 10
10.5
 20
10.5
 30
0.0
 11
10.5
 21
10.5
 31
0.0
  0
LINE
  8
0
 62
     0
  5
6A2
 10
10.5625
 20
10.5
 30
0.0
 11
10.5625
 21
10.5
 31
0.0
  0
LINE
  8
0
 62
     0
  5
6A3
 10
10.625
 20
10.5
 30
0.0
 11
10.625
 21
10.5
 31
0.0
  0
LINE
  8
0
 62
     0
  5
6A4
 10
10.6875
 20
10.5
 30
0.0
 11
10.6875
 21
10.5
 31
0.0
  0
LINE
  8
0
 62
     0
  5
6A5
 10
10.75
 20
10.5
 30
0.0
 11
10.75
 21
10.5
 31
0.0
  0
LINE
  8
0
 62
     0
  5
6A6
 10
10.8125
 20
10.5
 30
0.0
 11
10.8125
 21
10.5
 31
0.0
  0
LINE
  8
0
 62
     0
  5
6A7
 10
10.875
 20
10.5
 30
0.0
 11
10.875
 21
10.5
 31
0.0
  0
LINE
  8
0
 62
     0
  5
6A8
 10
10.9375
 20
10.5
 30
0.0
 11
10.9375
 21
10.5
 31
0.0
  0
LINE
  8
0
 62
     0
  5
6A9
 10
11.0
 20
10.5
 30
0.0
 11
11.0
 21
10.5
 31
0.0
  0
LINE
  8
0
 62
     0
  5
6AA
 10
11.0625
 20
10.5
 30
0.0
 11
11.0625
 21
10.5
 31
0.0
  0
LINE
  8
0
 62
     0
  5
6AB
 10
11.125
 20
10.5
 30
0.0
 11
11.125
 21
10.5
 31
0.0
  0
LINE
  8
0
 62
     0
  5
6AC
 10
11.1875
 20
10.5
 30
0.0
 11
11.1875
 21
10.5
 31
0.0
  0
LINE
  8
0
 62
     0
  5
6AD
 10
11.25
 20
10.5
 30
0.0
 11
11.25
 21
10.5
 31
0.0
  0
LINE
  8
0
 62
     0
  5
6AE
 10
11.3125
 20
10.5
 30
0.0
 11
11.3125
 21
10.5
 31
0.0
  0
LINE
  8
0
 62
     0
  5
6AF
 10
11.375
 20
10.5
 30
0.0
 11
11.375
 21
10.5
 31
0.0
  0
LINE
  8
0
 62
     0
  5
6B0
 10
11.4375
 20
10.5
 30
0.0
 11
11.4375
 21
10.5
 31
0.0
  0
LINE
  8
0
 62
     0
  5
6B1
 10
11.5
 20
10.5
 30
0.0
 11
11.5
 21
10.5
 31
0.0
  0
LINE
  8
0
 62
     0
  5
6B2
 10
7.84375
 20
10.5625
 30
0.0
 11
7.84375
 21
10.5625
 31
0.0
  0
LINE
  8
0
 62
     0
  5
6B3
 10
7.90625
 20
10.5625
 30
0.0
 11
7.90625
 21
10.5625
 31
0.0
  0
LINE
  8
0
 62
     0
  5
6B4
 10
7.96875
 20
10.5625
 30
0.0
 11
7.96875
 21
10.5625
 31
0.0
  0
LINE
  8
0
 62
     0
  5
6B5
 10
8.03125
 20
10.5625
 30
0.0
 11
8.03125
 21
10.5625
 31
0.0
  0
LINE
  8
0
 62
     0
  5
6B6
 10
8.09375
 20
10.5625
 30
0.0
 11
8.09375
 21
10.5625
 31
0.0
  0
LINE
  8
0
 62
     0
  5
6B7
 10
8.15625
 20
10.5625
 30
0.0
 11
8.15625
 21
10.5625
 31
0.0
  0
LINE
  8
0
 62
     0
  5
6B8
 10
8.21875
 20
10.5625
 30
0.0
 11
8.21875
 21
10.5625
 31
0.0
  0
LINE
  8
0
 62
     0
  5
6B9
 10
10.46875
 20
10.5625
 30
0.0
 11
10.46875
 21
10.5625
 31
0.0
  0
LINE
  8
0
 62
     0
  5
6BA
 10
10.53125
 20
10.5625
 30
0.0
 11
10.53125
 21
10.5625
 31
0.0
  0
LINE
  8
0
 62
     0
  5
6BB
 10
10.59375
 20
10.5625
 30
0.0
 11
10.59375
 21
10.5625
 31
0.0
  0
LINE
  8
0
 62
     0
  5
6BC
 10
10.65625
 20
10.5625
 30
0.0
 11
10.65625
 21
10.5625
 31
0.0
  0
LINE
  8
0
 62
     0
  5
6BD
 10
10.71875
 20
10.5625
 30
0.0
 11
10.71875
 21
10.5625
 31
0.0
  0
LINE
  8
0
 62
     0
  5
6BE
 10
10.78125
 20
10.5625
 30
0.0
 11
10.78125
 21
10.5625
 31
0.0
  0
LINE
  8
0
 62
     0
  5
6BF
 10
10.84375
 20
10.5625
 30
0.0
 11
10.84375
 21
10.5625
 31
0.0
  0
LINE
  8
0
 62
     0
  5
6C0
 10
10.90625
 20
10.5625
 30
0.0
 11
10.90625
 21
10.5625
 31
0.0
  0
LINE
  8
0
 62
     0
  5
6C1
 10
10.96875
 20
10.5625
 30
0.0
 11
10.96875
 21
10.5625
 31
0.0
  0
LINE
  8
0
 62
     0
  5
6C2
 10
11.03125
 20
10.5625
 30
0.0
 11
11.03125
 21
10.5625
 31
0.0
  0
LINE
  8
0
 62
     0
  5
6C3
 10
11.09375
 20
10.5625
 30
0.0
 11
11.09375
 21
10.5625
 31
0.0
  0
LINE
  8
0
 62
     0
  5
6C4
 10
11.15625
 20
10.5625
 30
0.0
 11
11.15625
 21
10.5625
 31
0.0
  0
LINE
  8
0
 62
     0
  5
6C5
 10
11.21875
 20
10.5625
 30
0.0
 11
11.21875
 21
10.5625
 31
0.0
  0
LINE
  8
0
 62
     0
  5
6C6
 10
11.28125
 20
10.5625
 30
0.0
 11
11.28125
 21
10.5625
 31
0.0
  0
LINE
  8
0
 62
     0
  5
6C7
 10
11.34375
 20
10.5625
 30
0.0
 11
11.34375
 21
10.5625
 31
0.0
  0
LINE
  8
0
 62
     0
  5
6C8
 10
11.40625
 20
10.5625
 30
0.0
 11
11.40625
 21
10.5625
 31
0.0
  0
LINE
  8
0
 62
     0
  5
6C9
 10
11.46875
 20
10.5625
 30
0.0
 11
11.46875
 21
10.5625
 31
0.0
  0
LINE
  8
0
 62
     0
  5
6CA
 10
11.53125
 20
10.5625
 30
0.0
 11
11.53125
 21
10.5625
 31
0.0
  0
LINE
  8
0
 62
     0
  5
6CB
 10
11.59375
 20
10.5625
 30
0.0
 11
11.59375
 21
10.5625
 31
0.0
  0
LINE
  8
0
 62
     0
  5
6CC
 10
11.65625
 20
10.5625
 30
0.0
 11
11.65625
 21
10.5625
 31
0.0
  0
LINE
  8
0
 62
     0
  5
6CD
 10
11.71875
 20
10.5625
 30
0.0
 11
11.71875
 21
10.5625
 31
0.0
  0
LINE
  8
0
 62
     0
  5
6CE
 10
7.8125
 20
10.625
 30
0.0
 11
7.8125
 21
10.625
 31
0.0
  0
LINE
  8
0
 62
     0
  5
6CF
 10
7.875
 20
10.625
 30
0.0
 11
7.875
 21
10.625
 31
0.0
  0
LINE
  8
0
 62
     0
  5
6D0
 10
7.9375
 20
10.625
 30
0.0
 11
7.9375
 21
10.625
 31
0.0
  0
LINE
  8
0
 62
     0
  5
6D1
 10
8.0
 20
10.625
 30
0.0
 11
8.0
 21
10.625
 31
0.0
  0
LINE
  8
0
 62
     0
  5
6D2
 10
8.0625
 20
10.625
 30
0.0
 11
8.0625
 21
10.625
 31
0.0
  0
LINE
  8
0
 62
     0
  5
6D3
 10
10.5
 20
10.625
 30
0.0
 11
10.5
 21
10.625
 31
0.0
  0
LINE
  8
0
 62
     0
  5
6D4
 10
10.5625
 20
10.625
 30
0.0
 11
10.5625
 21
10.625
 31
0.0
  0
LINE
  8
0
 62
     0
  5
6D5
 10
10.625
 20
10.625
 30
0.0
 11
10.625
 21
10.625
 31
0.0
  0
LINE
  8
0
 62
     0
  5
6D6
 10
10.6875
 20
10.625
 30
0.0
 11
10.6875
 21
10.625
 31
0.0
  0
LINE
  8
0
 62
     0
  5
6D7
 10
10.75
 20
10.625
 30
0.0
 11
10.75
 21
10.625
 31
0.0
  0
LINE
  8
0
 62
     0
  5
6D8
 10
10.8125
 20
10.625
 30
0.0
 11
10.8125
 21
10.625
 31
0.0
  0
LINE
  8
0
 62
     0
  5
6D9
 10
10.875
 20
10.625
 30
0.0
 11
10.875
 21
10.625
 31
0.0
  0
LINE
  8
0
 62
     0
  5
6DA
 10
10.9375
 20
10.625
 30
0.0
 11
10.9375
 21
10.625
 31
0.0
  0
LINE
  8
0
 62
     0
  5
6DB
 10
11.0
 20
10.625
 30
0.0
 11
11.0
 21
10.625
 31
0.0
  0
LINE
  8
0
 62
     0
  5
6DC
 10
11.0625
 20
10.625
 30
0.0
 11
11.0625
 21
10.625
 31
0.0
  0
LINE
  8
0
 62
     0
  5
6DD
 10
11.125
 20
10.625
 30
0.0
 11
11.125
 21
10.625
 31
0.0
  0
LINE
  8
0
 62
     0
  5
6DE
 10
11.1875
 20
10.625
 30
0.0
 11
11.1875
 21
10.625
 31
0.0
  0
LINE
  8
0
 62
     0
  5
6DF
 10
11.25
 20
10.625
 30
0.0
 11
11.25
 21
10.625
 31
0.0
  0
LINE
  8
0
 62
     0
  5
6E0
 10
11.3125
 20
10.625
 30
0.0
 11
11.3125
 21
10.625
 31
0.0
  0
LINE
  8
0
 62
     0
  5
6E1
 10
11.375
 20
10.625
 30
0.0
 11
11.375
 21
10.625
 31
0.0
  0
LINE
  8
0
 62
     0
  5
6E2
 10
11.4375
 20
10.625
 30
0.0
 11
11.4375
 21
10.625
 31
0.0
  0
LINE
  8
0
 62
     0
  5
6E3
 10
11.5
 20
10.625
 30
0.0
 11
11.5
 21
10.625
 31
0.0
  0
LINE
  8
0
 62
     0
  5
6E4
 10
11.5625
 20
10.625
 30
0.0
 11
11.5625
 21
10.625
 31
0.0
  0
LINE
  8
0
 62
     0
  5
6E5
 10
11.625
 20
10.625
 30
0.0
 11
11.625
 21
10.625
 31
0.0
  0
LINE
  8
0
 62
     0
  5
6E6
 10
11.6875
 20
10.625
 30
0.0
 11
11.6875
 21
10.625
 31
0.0
  0
LINE
  8
0
 62
     0
  5
6E7
 10
11.75
 20
10.625
 30
0.0
 11
11.75
 21
10.625
 31
0.0
  0
LINE
  8
0
 62
     0
  5
6E8
 10
11.8125
 20
10.625
 30
0.0
 11
11.8125
 21
10.625
 31
0.0
  0
LINE
  8
0
 62
     0
  5
6E9
 10
11.875
 20
10.625
 30
0.0
 11
11.875
 21
10.625
 31
0.0
  0
LINE
  8
0
 62
     0
  5
6EA
 10
7.71875
 20
10.6875
 30
0.0
 11
7.71875
 21
10.6875
 31
0.0
  0
LINE
  8
0
 62
     0
  5
6EB
 10
7.78125
 20
10.6875
 30
0.0
 11
7.78125
 21
10.6875
 31
0.0
  0
LINE
  8
0
 62
     0
  5
6EC
 10
7.84375
 20
10.6875
 30
0.0
 11
7.84375
 21
10.6875
 31
0.0
  0
LINE
  8
0
 62
     0
  5
6ED
 10
10.53125
 20
10.6875
 30
0.0
 11
10.53125
 21
10.6875
 31
0.0
  0
LINE
  8
0
 62
     0
  5
6EE
 10
10.59375
 20
10.6875
 30
0.0
 11
10.59375
 21
10.6875
 31
0.0
  0
LINE
  8
0
 62
     0
  5
6EF
 10
10.65625
 20
10.6875
 30
0.0
 11
10.65625
 21
10.6875
 31
0.0
  0
LINE
  8
0
 62
     0
  5
6F0
 10
10.71875
 20
10.6875
 30
0.0
 11
10.71875
 21
10.6875
 31
0.0
  0
LINE
  8
0
 62
     0
  5
6F1
 10
10.78125
 20
10.6875
 30
0.0
 11
10.78125
 21
10.6875
 31
0.0
  0
LINE
  8
0
 62
     0
  5
6F2
 10
10.84375
 20
10.6875
 30
0.0
 11
10.84375
 21
10.6875
 31
0.0
  0
LINE
  8
0
 62
     0
  5
6F3
 10
10.90625
 20
10.6875
 30
0.0
 11
10.90625
 21
10.6875
 31
0.0
  0
LINE
  8
0
 62
     0
  5
6F4
 10
10.96875
 20
10.6875
 30
0.0
 11
10.96875
 21
10.6875
 31
0.0
  0
LINE
  8
0
 62
     0
  5
6F5
 10
11.03125
 20
10.6875
 30
0.0
 11
11.03125
 21
10.6875
 31
0.0
  0
LINE
  8
0
 62
     0
  5
6F6
 10
11.09375
 20
10.6875
 30
0.0
 11
11.09375
 21
10.6875
 31
0.0
  0
LINE
  8
0
 62
     0
  5
6F7
 10
11.15625
 20
10.6875
 30
0.0
 11
11.15625
 21
10.6875
 31
0.0
  0
LINE
  8
0
 62
     0
  5
6F8
 10
11.21875
 20
10.6875
 30
0.0
 11
11.21875
 21
10.6875
 31
0.0
  0
LINE
  8
0
 62
     0
  5
6F9
 10
11.28125
 20
10.6875
 30
0.0
 11
11.28125
 21
10.6875
 31
0.0
  0
LINE
  8
0
 62
     0
  5
6FA
 10
11.34375
 20
10.6875
 30
0.0
 11
11.34375
 21
10.6875
 31
0.0
  0
LINE
  8
0
 62
     0
  5
6FB
 10
11.40625
 20
10.6875
 30
0.0
 11
11.40625
 21
10.6875
 31
0.0
  0
LINE
  8
0
 62
     0
  5
6FC
 10
11.46875
 20
10.6875
 30
0.0
 11
11.46875
 21
10.6875
 31
0.0
  0
LINE
  8
0
 62
     0
  5
6FD
 10
11.53125
 20
10.6875
 30
0.0
 11
11.53125
 21
10.6875
 31
0.0
  0
LINE
  8
0
 62
     0
  5
6FE
 10
11.59375
 20
10.6875
 30
0.0
 11
11.59375
 21
10.6875
 31
0.0
  0
LINE
  8
0
 62
     0
  5
6FF
 10
11.65625
 20
10.6875
 30
0.0
 11
11.65625
 21
10.6875
 31
0.0
  0
LINE
  8
0
 62
     0
  5
700
 10
11.71875
 20
10.6875
 30
0.0
 11
11.71875
 21
10.6875
 31
0.0
  0
LINE
  8
0
 62
     0
  5
701
 10
11.78125
 20
10.6875
 30
0.0
 11
11.78125
 21
10.6875
 31
0.0
  0
LINE
  8
0
 62
     0
  5
702
 10
11.84375
 20
10.6875
 30
0.0
 11
11.84375
 21
10.6875
 31
0.0
  0
LINE
  8
0
 62
     0
  5
703
 10
11.90625
 20
10.6875
 30
0.0
 11
11.90625
 21
10.6875
 31
0.0
  0
LINE
  8
0
 62
     0
  5
704
 10
11.96875
 20
10.6875
 30
0.0
 11
11.96875
 21
10.6875
 31
0.0
  0
LINE
  8
0
 62
     0
  5
705
 10
12.03125
 20
10.6875
 30
0.0
 11
12.03125
 21
10.6875
 31
0.0
  0
LINE
  8
0
 62
     0
  5
706
 10
12.09375
 20
10.6875
 30
0.0
 11
12.09375
 21
10.6875
 31
0.0
  0
LINE
  8
0
 62
     0
  5
707
 10
7.6875
 20
10.75
 30
0.0
 11
7.6875
 21
10.75
 31
0.0
  0
LINE
  8
0
 62
     0
  5
708
 10
10.5625
 20
10.75
 30
0.0
 11
10.5625
 21
10.75
 31
0.0
  0
LINE
  8
0
 62
     0
  5
709
 10
10.625
 20
10.75
 30
0.0
 11
10.625
 21
10.75
 31
0.0
  0
LINE
  8
0
 62
     0
  5
70A
 10
10.6875
 20
10.75
 30
0.0
 11
10.6875
 21
10.75
 31
0.0
  0
LINE
  8
0
 62
     0
  5
70B
 10
10.75
 20
10.75
 30
0.0
 11
10.75
 21
10.75
 31
0.0
  0
LINE
  8
0
 62
     0
  5
70C
 10
10.8125
 20
10.75
 30
0.0
 11
10.8125
 21
10.75
 31
0.0
  0
LINE
  8
0
 62
     0
  5
70D
 10
10.875
 20
10.75
 30
0.0
 11
10.875
 21
10.75
 31
0.0
  0
LINE
  8
0
 62
     0
  5
70E
 10
10.9375
 20
10.75
 30
0.0
 11
10.9375
 21
10.75
 31
0.0
  0
LINE
  8
0
 62
     0
  5
70F
 10
11.0
 20
10.75
 30
0.0
 11
11.0
 21
10.75
 31
0.0
  0
LINE
  8
0
 62
     0
  5
710
 10
11.0625
 20
10.75
 30
0.0
 11
11.0625
 21
10.75
 31
0.0
  0
LINE
  8
0
 62
     0
  5
711
 10
11.125
 20
10.75
 30
0.0
 11
11.125
 21
10.75
 31
0.0
  0
LINE
  8
0
 62
     0
  5
712
 10
11.1875
 20
10.75
 30
0.0
 11
11.1875
 21
10.75
 31
0.0
  0
LINE
  8
0
 62
     0
  5
713
 10
11.25
 20
10.75
 30
0.0
 11
11.25
 21
10.75
 31
0.0
  0
LINE
  8
0
 62
     0
  5
714
 10
11.3125
 20
10.75
 30
0.0
 11
11.3125
 21
10.75
 31
0.0
  0
LINE
  8
0
 62
     0
  5
715
 10
11.375
 20
10.75
 30
0.0
 11
11.375
 21
10.75
 31
0.0
  0
LINE
  8
0
 62
     0
  5
716
 10
11.4375
 20
10.75
 30
0.0
 11
11.4375
 21
10.75
 31
0.0
  0
LINE
  8
0
 62
     0
  5
717
 10
11.5
 20
10.75
 30
0.0
 11
11.5
 21
10.75
 31
0.0
  0
LINE
  8
0
 62
     0
  5
718
 10
11.5625
 20
10.75
 30
0.0
 11
11.5625
 21
10.75
 31
0.0
  0
LINE
  8
0
 62
     0
  5
719
 10
11.625
 20
10.75
 30
0.0
 11
11.625
 21
10.75
 31
0.0
  0
LINE
  8
0
 62
     0
  5
71A
 10
11.6875
 20
10.75
 30
0.0
 11
11.6875
 21
10.75
 31
0.0
  0
LINE
  8
0
 62
     0
  5
71B
 10
11.75
 20
10.75
 30
0.0
 11
11.75
 21
10.75
 31
0.0
  0
LINE
  8
0
 62
     0
  5
71C
 10
11.8125
 20
10.75
 30
0.0
 11
11.8125
 21
10.75
 31
0.0
  0
LINE
  8
0
 62
     0
  5
71D
 10
11.875
 20
10.75
 30
0.0
 11
11.875
 21
10.75
 31
0.0
  0
LINE
  8
0
 62
     0
  5
71E
 10
11.9375
 20
10.75
 30
0.0
 11
11.9375
 21
10.75
 31
0.0
  0
LINE
  8
0
 62
     0
  5
71F
 10
12.0
 20
10.75
 30
0.0
 11
12.0
 21
10.75
 31
0.0
  0
LINE
  8
0
 62
     0
  5
720
 10
12.0625
 20
10.75
 30
0.0
 11
12.0625
 21
10.75
 31
0.0
  0
LINE
  8
0
 62
     0
  5
721
 10
12.125
 20
10.75
 30
0.0
 11
12.125
 21
10.75
 31
0.0
  0
LINE
  8
0
 62
     0
  5
722
 10
12.1875
 20
10.75
 30
0.0
 11
12.1875
 21
10.75
 31
0.0
  0
LINE
  8
0
 62
     0
  5
723
 10
12.25
 20
10.75
 30
0.0
 11
12.25
 21
10.75
 31
0.0
  0
LINE
  8
0
 62
     0
  5
724
 10
10.59375
 20
10.8125
 30
0.0
 11
10.59375
 21
10.8125
 31
0.0
  0
LINE
  8
0
 62
     0
  5
725
 10
10.65625
 20
10.8125
 30
0.0
 11
10.65625
 21
10.8125
 31
0.0
  0
LINE
  8
0
 62
     0
  5
726
 10
10.71875
 20
10.8125
 30
0.0
 11
10.71875
 21
10.8125
 31
0.0
  0
LINE
  8
0
 62
     0
  5
727
 10
10.78125
 20
10.8125
 30
0.0
 11
10.78125
 21
10.8125
 31
0.0
  0
LINE
  8
0
 62
     0
  5
728
 10
10.84375
 20
10.8125
 30
0.0
 11
10.84375
 21
10.8125
 31
0.0
  0
LINE
  8
0
 62
     0
  5
729
 10
10.90625
 20
10.8125
 30
0.0
 11
10.90625
 21
10.8125
 31
0.0
  0
LINE
  8
0
 62
     0
  5
72A
 10
10.96875
 20
10.8125
 30
0.0
 11
10.96875
 21
10.8125
 31
0.0
  0
LINE
  8
0
 62
     0
  5
72B
 10
11.03125
 20
10.8125
 30
0.0
 11
11.03125
 21
10.8125
 31
0.0
  0
LINE
  8
0
 62
     0
  5
72C
 10
11.09375
 20
10.8125
 30
0.0
 11
11.09375
 21
10.8125
 31
0.0
  0
LINE
  8
0
 62
     0
  5
72D
 10
11.15625
 20
10.8125
 30
0.0
 11
11.15625
 21
10.8125
 31
0.0
  0
LINE
  8
0
 62
     0
  5
72E
 10
11.21875
 20
10.8125
 30
0.0
 11
11.21875
 21
10.8125
 31
0.0
  0
LINE
  8
0
 62
     0
  5
72F
 10
11.28125
 20
10.8125
 30
0.0
 11
11.28125
 21
10.8125
 31
0.0
  0
LINE
  8
0
 62
     0
  5
730
 10
11.34375
 20
10.8125
 30
0.0
 11
11.34375
 21
10.8125
 31
0.0
  0
LINE
  8
0
 62
     0
  5
731
 10
11.40625
 20
10.8125
 30
0.0
 11
11.40625
 21
10.8125
 31
0.0
  0
LINE
  8
0
 62
     0
  5
732
 10
11.46875
 20
10.8125
 30
0.0
 11
11.46875
 21
10.8125
 31
0.0
  0
LINE
  8
0
 62
     0
  5
733
 10
11.53125
 20
10.8125
 30
0.0
 11
11.53125
 21
10.8125
 31
0.0
  0
LINE
  8
0
 62
     0
  5
734
 10
11.59375
 20
10.8125
 30
0.0
 11
11.59375
 21
10.8125
 31
0.0
  0
LINE
  8
0
 62
     0
  5
735
 10
11.65625
 20
10.8125
 30
0.0
 11
11.65625
 21
10.8125
 31
0.0
  0
LINE
  8
0
 62
     0
  5
736
 10
11.71875
 20
10.8125
 30
0.0
 11
11.71875
 21
10.8125
 31
0.0
  0
LINE
  8
0
 62
     0
  5
737
 10
11.78125
 20
10.8125
 30
0.0
 11
11.78125
 21
10.8125
 31
0.0
  0
LINE
  8
0
 62
     0
  5
738
 10
11.84375
 20
10.8125
 30
0.0
 11
11.84375
 21
10.8125
 31
0.0
  0
LINE
  8
0
 62
     0
  5
739
 10
11.90625
 20
10.8125
 30
0.0
 11
11.90625
 21
10.8125
 31
0.0
  0
LINE
  8
0
 62
     0
  5
73A
 10
11.96875
 20
10.8125
 30
0.0
 11
11.96875
 21
10.8125
 31
0.0
  0
LINE
  8
0
 62
     0
  5
73B
 10
12.03125
 20
10.8125
 30
0.0
 11
12.03125
 21
10.8125
 31
0.0
  0
LINE
  8
0
 62
     0
  5
73C
 10
12.09375
 20
10.8125
 30
0.0
 11
12.09375
 21
10.8125
 31
0.0
  0
LINE
  8
0
 62
     0
  5
73D
 10
10.6875
 20
10.875
 30
0.0
 11
10.6875
 21
10.875
 31
0.0
  0
LINE
  8
0
 62
     0
  5
73E
 10
10.75
 20
10.875
 30
0.0
 11
10.75
 21
10.875
 31
0.0
  0
LINE
  8
0
 62
     0
  5
73F
 10
10.8125
 20
10.875
 30
0.0
 11
10.8125
 21
10.875
 31
0.0
  0
LINE
  8
0
 62
     0
  5
740
 10
10.875
 20
10.875
 30
0.0
 11
10.875
 21
10.875
 31
0.0
  0
LINE
  8
0
 62
     0
  5
741
 10
10.9375
 20
10.875
 30
0.0
 11
10.9375
 21
10.875
 31
0.0
  0
LINE
  8
0
 62
     0
  5
742
 10
11.0
 20
10.875
 30
0.0
 11
11.0
 21
10.875
 31
0.0
  0
LINE
  8
0
 62
     0
  5
743
 10
11.0625
 20
10.875
 30
0.0
 11
11.0625
 21
10.875
 31
0.0
  0
LINE
  8
0
 62
     0
  5
744
 10
11.125
 20
10.875
 30
0.0
 11
11.125
 21
10.875
 31
0.0
  0
LINE
  8
0
 62
     0
  5
745
 10
11.1875
 20
10.875
 30
0.0
 11
11.1875
 21
10.875
 31
0.0
  0
LINE
  8
0
 62
     0
  5
746
 10
11.25
 20
10.875
 30
0.0
 11
11.25
 21
10.875
 31
0.0
  0
LINE
  8
0
 62
     0
  5
747
 10
11.3125
 20
10.875
 30
0.0
 11
11.3125
 21
10.875
 31
0.0
  0
LINE
  8
0
 62
     0
  5
748
 10
11.375
 20
10.875
 30
0.0
 11
11.375
 21
10.875
 31
0.0
  0
LINE
  8
0
 62
     0
  5
749
 10
11.4375
 20
10.875
 30
0.0
 11
11.4375
 21
10.875
 31
0.0
  0
LINE
  8
0
 62
     0
  5
74A
 10
11.5
 20
10.875
 30
0.0
 11
11.5
 21
10.875
 31
0.0
  0
LINE
  8
0
 62
     0
  5
74B
 10
11.5625
 20
10.875
 30
0.0
 11
11.5625
 21
10.875
 31
0.0
  0
LINE
  8
0
 62
     0
  5
74C
 10
11.625
 20
10.875
 30
0.0
 11
11.625
 21
10.875
 31
0.0
  0
LINE
  8
0
 62
     0
  5
74D
 10
10.71875
 20
10.9375
 30
0.0
 11
10.71875
 21
10.9375
 31
0.0
  0
LINE
  8
0
 62
     0
  5
74E
 10
10.78125
 20
10.9375
 30
0.0
 11
10.78125
 21
10.9375
 31
0.0
  0
LINE
  8
0
 62
     0
  5
74F
 10
10.84375
 20
10.9375
 30
0.0
 11
10.84375
 21
10.9375
 31
0.0
  0
LINE
  8
0
 62
     0
  5
750
 10
10.90625
 20
10.9375
 30
0.0
 11
10.90625
 21
10.9375
 31
0.0
  0
LINE
  8
0
 62
     0
  5
751
 10
10.96875
 20
10.9375
 30
0.0
 11
10.96875
 21
10.9375
 31
0.0
  0
LINE
  8
0
 62
     0
  5
752
 10
11.03125
 20
10.9375
 30
0.0
 11
11.03125
 21
10.9375
 31
0.0
  0
LINE
  8
0
 62
     0
  5
753
 10
11.09375
 20
10.9375
 30
0.0
 11
11.09375
 21
10.9375
 31
0.0
  0
LINE
  8
0
 62
     0
  5
754
 10
11.15625
 20
10.9375
 30
0.0
 11
11.15625
 21
10.9375
 31
0.0
  0
LINE
  8
0
 62
     0
  5
755
 10
11.21875
 20
10.9375
 30
0.0
 11
11.21875
 21
10.9375
 31
0.0
  0
LINE
  8
0
 62
     0
  5
756
 10
10.75
 20
11.0
 30
0.0
 11
10.75
 21
11.0
 31
0.0
  0
ENDBLK
  8
0
  5
757
  0
ENDSEC
  0
SECTION
  2
ENTITIES
  0
LINE
  8
0
  5
48
 10
88.16201
 20
-15.8193
 30
0.0
 11
90.879653
 21
-21.325847
 31
0.0
  0
LINE
  8
0
  5
49
 10
90.879653
 20
-21.325847
 30
0.0
 11
96.956489
 21
-22.208863
 31
0.0
  0
LINE
  8
0
  5
4A
 10
97.093249
 20
-22.629768
 30
0.0
 11
92.69601
 21
-26.916017
 31
0.0
  0
LINE
  8
0
  5
4B
 10
92.69601
 20
-26.916017
 30
0.0
 11
93.734057
 21
-32.968298
 31
0.0
  0
LINE
  8
0
  5
4C
 10
93.376014
 20
-33.228432
 30
0.0
 11
87.940727
 21
-30.370932
 31
0.0
  0
LINE
  8
0
  5
4D
 10
87.940727
 20
-30.370932
 30
0.0
 11
82.50544
 21
-33.228432
 31
0.0
  0
LINE
  8
0
  5
4E
 10
82.147397
 20
-32.968298
 30
0.0
 11
83.185445
 21
-26.916017
 31
0.0
  0
LINE
  8
0
  5
4F
 10
83.185445
 20
-26.916017
 30
0.0
 11
78.788205
 21
-22.629768
 31
0.0
  0
LINE
  8
0
  5
50
 10
78.924966
 20
-22.208863
 30
0.0
 11
85.001801
 21
-21.325847
 31
0.0
  0
LINE
  8
0
  5
51
 10
85.001801
 20
-21.325847
 30
0.0
 11
87.719444
 21
-15.8193
 31
0.0
  0
CIRCLE
  8
0
  5
52
 10
87.940727
 20
-25.370932
 30
0.0
 40
2.5
  0
ARC
  8
0
  5
53
 10
87.940727
 20
-15.370932
 30
0.0
 40
0.5
 50
296.267699
 51
243.732301
  0
ARC
  8
0
  5
54
 10
97.451292
 20
-22.280762
 30
0.0
 40
0.5
 50
224.267699
 51
171.732301
  0
ARC
  8
0
  5
55
 10
93.81858
 20
-33.461102
 30
0.0
 40
0.5
 50
152.267699
 51
99.732301
  0
ARC
  8
0
  5
56
 10
82.062875
 20
-33.461102
 30
0.0
 40
0.5
 50
80.267699
 51
27.732301
  0
ARC
  8
0
  5
57
 10
78.430162
 20
-22.280762
 30
0.0
 40
0.5
 50
8.267699
 51
315.732301
  0
CIRCLE
  8
0
  5
58
 10
87.940727
 20
-25.370932
 30
0.0
 40
10.5
  0
CIRCLE
  8
0
  5
59
 10
87.940727
 20
-25.370932
 30
0.0
 40
4.75
  0
ARC
  8
0
  5
64
 10
87.940727
 20
-15.370932
 30
0.0
 40
0.385999
 50
121.871708
 51
242.783341
  0
ARC
  8
0
  5
65
 10
87.940727
 20
-15.370932
 30
0.0
 40
0.285725
 50
117.66785
 51
269.943452
  0
POLYLINE
  8
0
  5
70
 66
     1
 10
0.0
 20
0.0
 30
0.0
 70
     1
 40
0.045
 41
0.045
  0
VERTEX
  8
0
  5
71
 10
90.532942
 20
-20.858995
 30
0.0
 42
1.0
  0
VERTEX
  8
0
  5
72
 10
90.49942
 20
-20.902599
 30
0.0
 42
1.0
  0
SEQEND
  8
0
  5
73
  0
INSERT
  8
ASHADE
 62
     1
  5
8A
  2
AVE_RENDER
 10
0.0
 20
0.0
 30
0.0
1001
AVE_RENDER
1002
{
1070
     2
1000
Pref
1070
    30
1070
    20
1070
     0
1070
     0
1000

1070
    10
1070
     0
1070
    30
1040
1.0
1070
     1
1040
0.3
1040
0.7
1040
0.0
1040
10.0
1010
-1.0
1020
-1.0
1030
-1.0
1040
0.3
1070
    49
1002
}
  0
INSERT
  8
ASHADE
 62
     3
  5
8B
  2
AVE_RENDER
 10
0.0
 20
0.0
 30
0.0
1001
AVE_RENDER
1002
{
1070
     0
1000
Full Opt
1070
     0
1070
     1
1070
     1
1070
     1
1070
     0
1070
     0
1070
     0
1070
     1
1070
     1
1040
0.0001
1040
0.0001
1002
}
  0
INSERT
  8
ASHADE
 62
     4
  5
8C
  2
AVE_RENDER
 10
0.0
 20
0.0
 30
0.0
1001
AVE_RENDER
1002
{
1070
     0
1000
Quick Opt
1070
     0
1070
     1
1070
     1
1070
     1
1070
     0
1070
     0
1070
     1
1002
}
  0
POLYLINE
  8
0
  5
A5
 66
     1
 10
0.0
 20
0.0
 30
0.0
 70
     1
 40
0.045
 41
0.045
  0
VERTEX
  8
0
  5
A6
 10
90.091711
 20
-19.961602
 30
0.0
 42
1.0
  0
VERTEX
  8
0
  5
A7
 10
90.058189
 20
-20.005205
 30
0.0
 42
1.0
  0
SEQEND
  8
0
  5
A8
  0
POLYLINE
  8
0
  5
A9
 66
     1
 10
0.0
 20
0.0
 30
0.0
 70
     1
 40
0.045
 41
0.045
  0
VERTEX
  8
0
  5
AA
 10
89.650479
 20
-19.064208
 30
0.0
 42
1.0
  0
VERTEX
  8
0
  5
AB
 10
89.616958
 20
-19.107812
 30
0.0
 42
1.0
  0
SEQEND
  8
0
  5
AC
  0
POLYLINE
  8
0
  5
AD
 66
     1
 10
0.0
 20
0.0
 30
0.0
 70
     1
 40
0.045
 41
0.045
  0
VERTEX
  8
0
  5
AE
 10
89.209248
 20
-18.166815
 30
0.0
 42
1.0
  0
VERTEX
  8
0
  5
AF
 10
89.175726
 20
-18.210419
 30
0.0
 42
1.0
  0
SEQEND
  8
0
  5
B0
  0
POLYLINE
  8
0
  5
B1
 66
     1
 10
0.0
 20
0.0
 30
0.0
 70
     1
 40
0.045
 41
0.045
  0
VERTEX
  8
0
  5
B2
 10
88.768017
 20
-17.269421
 30
0.0
 42
1.0
  0
VERTEX
  8
0
  5
B3
 10
88.734495
 20
-17.313025
 30
0.0
 42
1.0
  0
SEQEND
  8
0
  5
B4
  0
POLYLINE
  8
0
  5
B5
 66
     1
 10
0.0
 20
0.0
 30
0.0
 70
     1
 40
0.045
 41
0.045
  0
VERTEX
  8
0
  5
B6
 10
88.326786
 20
-16.372028
 30
0.0
 42
1.0
  0
VERTEX
  8
0
  5
B7
 10
88.293264
 20
-16.415632
 30
0.0
 42
1.0
  0
SEQEND
  8
0
  5
B8
  0
POLYLINE
  8
0
  5
BA
 66
     1
 10
0.0
 20
0.0
 30
0.0
 70
     1
 40
0.045
 41
0.045
  0
VERTEX
  8
0
  5
BB
 10
87.663192
 20
-16.408225
 30
0.0
 42
1.0
  0
VERTEX
  8
0
  5
BC
 10
87.608192
 20
-16.408351
 30
0.0
 42
1.0
  0
SEQEND
  8
0
  5
BD
  0
POLYLINE
  8
0
  5
BE
 66
     1
 10
0.0
 20
0.0
 30
0.0
 70
     1
 40
0.045
 41
0.045
  0
VERTEX
  8
0
  5
BF
 10
87.222728
 20
-17.305995
 30
0.0
 42
1.0
  0
VERTEX
  8
0
  5
C0
 10
87.167728
 20
-17.306121
 30
0.0
 42
1.0
  0
SEQEND
  8
0
  5
C1
  0
POLYLINE
  8
0
  5
C2
 66
     1
 10
0.0
 20
0.0
 30
0.0
 70
     1
 40
0.045
 41
0.045
  0
VERTEX
  8
0
  5
C3
 10
86.782264
 20
-18.203765
 30
0.0
 42
1.0
  0
VERTEX
  8
0
  5
C4
 10
86.727264
 20
-18.203891
 30
0.0
 42
1.0
  0
SEQEND
  8
0
  5
C5
  0
POLYLINE
  8
0
  5
C6
 66
     1
 10
0.0
 20
0.0
 30
0.0
 70
     1
 40
0.045
 41
0.045
  0
VERTEX
  8
0
  5
C7
 10
86.3418
 20
-19.101535
 30
0.0
 42
1.0
  0
VERTEX
  8
0
  5
C8
 10
86.2868
 20
-19.101662
 30
0.0
 42
1.0
  0
SEQEND
  8
0
  5
C9
  0
POLYLINE
  8
0
  5
CA
 66
     1
 10
0.0
 20
0.0
 30
0.0
 70
     1
 40
0.045
 41
0.045
  0
VERTEX
  8
0
  5
CB
 10
85.901336
 20
-19.999306
 30
0.0
 42
1.0
  0
VERTEX
  8
0
  5
CC
 10
85.846336
 20
-19.999432
 30
0.0
 42
1.0
  0
SEQEND
  8
0
  5
CD
  0
POLYLINE
  8
0
  5
CE
 66
     1
 10
0.0
 20
0.0
 30
0.0
 70
     1
 40
0.045
 41
0.045
  0
VERTEX
  8
0
  5
CF
 10
85.460872
 20
-20.897076
 30
0.0
 42
1.0
  0
VERTEX
  8
0
  5
D0
 10
85.405872
 20
-20.897202
 30
0.0
 42
1.0
  0
SEQEND
  8
0
  5
D1
  0
POLYLINE
  8
0
  5
D2
 66
     1
 10
0.0
 20
0.0
 30
0.0
 70
     1
 40
0.045
 41
0.045
  0
VERTEX
  8
0
  5
D3
 10
79.524142
 20
-22.268102
 30
0.0
 42
1.0
  0
VERTEX
  8
0
  5
D4
 10
79.555253
 20
-22.313458
 30
0.0
 42
1.0
  0
SEQEND
  8
0
  5
D5
  0
POLYLINE
  8
0
  5
D6
 66
     1
 10
0.0
 20
0.0
 30
0.0
 70
     1
 40
0.045
 41
0.045
  0
VERTEX
  8
0
  5
D7
 10
80.513962
 20
-22.125776
 30
0.0
 42
1.0
  0
VERTEX
  8
0
  5
D8
 10
80.545072
 20
-22.171132
 30
0.0
 42
1.0
  0
SEQEND
  8
0
  5
D9
  0
POLYLINE
  8
0
  5
DA
 66
     1
 10
0.0
 20
0.0
 30
0.0
 70
     1
 40
0.045
 41
0.045
  0
VERTEX
  8
0
  5
DB
 10
81.503781
 20
-21.98345
 30
0.0
 42
1.0
  0
VERTEX
  8
0
  5
DC
 10
81.534892
 20
-22.028806
 30
0.0
 42
1.0
  0
SEQEND
  8
0
  5
DD
  0
POLYLINE
  8
0
  5
DE
 66
     1
 10
0.0
 20
0.0
 30
0.0
 70
     1
 40
0.045
 41
0.045
  0
VERTEX
  8
0
  5
DF
 10
82.493601
 20
-21.841124
 30
0.0
 42
1.0
  0
VERTEX
  8
0
  5
E0
 10
82.524712
 20
-21.88648
 30
0.0
 42
1.0
  0
SEQEND
  8
0
  5
E1
  0
POLYLINE
  8
0
  5
E2
 66
     1
 10
0.0
 20
0.0
 30
0.0
 70
     1
 40
0.045
 41
0.045
  0
VERTEX
  8
0
  5
E3
 10
83.483421
 20
-21.698798
 30
0.0
 42
1.0
  0
VERTEX
  8
0
  5
E4
 10
83.514532
 20
-21.744153
 30
0.0
 42
1.0
  0
SEQEND
  8
0
  5
E5
  0
POLYLINE
  8
0
  5
E6
 66
     1
 10
0.0
 20
0.0
 30
0.0
 70
     1
 40
0.045
 41
0.045
  0
VERTEX
  8
0
  5
E7
 10
84.473241
 20
-21.556472
 30
0.0
 42
1.0
  0
VERTEX
  8
0
  5
E8
 10
84.504352
 20
-21.601827
 30
0.0
 42
1.0
  0
SEQEND
  8
0
  5
E9
  0
POLYLINE
  8
0
  5
102
 66
     1
 10
0.0
 20
0.0
 30
0.0
 70
     1
 40
0.045
 41
0.045
  0
VERTEX
  8
0
  5
103
 10
82.384141
 20
-32.435566
 30
0.0
 42
1.0
  0
VERTEX
  8
0
  5
104
 10
82.436891
 20
-32.419994
 30
0.0
 42
1.0
  0
SEQEND
  8
0
  5
105
  0
POLYLINE
  8
0
  5
106
 66
     1
 10
0.0
 20
0.0
 30
0.0
 70
     1
 40
0.045
 41
0.045
  0
VERTEX
  8
0
  5
107
 10
82.554652
 20
-31.45021
 30
0.0
 42
1.0
  0
VERTEX
  8
0
  5
108
 10
82.607402
 20
-31.434638
 30
0.0
 42
1.0
  0
SEQEND
  8
0
  5
109
  0
POLYLINE
  8
0
  5
10A
 66
     1
 10
0.0
 20
0.0
 30
0.0
 70
     1
 40
0.045
 41
0.045
  0
VERTEX
  8
0
  5
10B
 10
82.725163
 20
-30.464855
 30
0.0
 42
1.0
  0
VERTEX
  8
0
  5
10C
 10
82.777913
 20
-30.449282
 30
0.0
 42
1.0
  0
SEQEND
  8
0
  5
10D
  0
POLYLINE
  8
0
  5
10E
 66
     1
 10
0.0
 20
0.0
 30
0.0
 70
     1
 40
0.045
 41
0.045
  0
VERTEX
  8
0
  5
10F
 10
82.895674
 20
-29.479499
 30
0.0
 42
1.0
  0
VERTEX
  8
0
  5
110
 10
82.948424
 20
-29.463926
 30
0.0
 42
1.0
  0
SEQEND
  8
0
  5
111
  0
POLYLINE
  8
0
  5
112
 66
     1
 10
0.0
 20
0.0
 30
0.0
 70
     1
 40
0.045
 41
0.045
  0
VERTEX
  8
0
  5
113
 10
83.066185
 20
-28.494143
 30
0.0
 42
1.0
  0
VERTEX
  8
0
  5
114
 10
83.118934
 20
-28.478571
 30
0.0
 42
1.0
  0
SEQEND
  8
0
  5
115
  0
POLYLINE
  8
0
  5
116
 66
     1
 10
0.0
 20
0.0
 30
0.0
 70
     1
 40
0.045
 41
0.045
  0
VERTEX
  8
0
  5
117
 10
83.236696
 20
-27.508787
 30
0.0
 42
1.0
  0
VERTEX
  8
0
  5
118
 10
83.289445
 20
-27.493215
 30
0.0
 42
1.0
  0
SEQEND
  8
0
  5
119
  0
POLYLINE
  8
0
  5
132
 66
     1
 10
0.0
 20
0.0
 30
0.0
 70
     1
 40
0.045
 41
0.045
  0
VERTEX
  8
0
  5
133
 10
92.951696
 20
-32.83297
 30
0.0
 42
1.0
  0
VERTEX
  8
0
  5
134
 10
92.953186
 20
-32.77799
 30
0.0
 42
1.0
  0
SEQEND
  8
0
  5
135
  0
POLYLINE
  8
0
  5
136
 66
     1
 10
0.0
 20
0.0
 30
0.0
 70
     1
 40
0.045
 41
0.045
  0
VERTEX
  8
0
  5
137
 10
92.067258
 20
-32.366313
 30
0.0
 42
1.0
  0
VERTEX
  8
0
  5
138
 10
92.068748
 20
-32.311333
 30
0.0
 42
1.0
  0
SEQEND
  8
0
  5
139
  0
POLYLINE
  8
0
  5
13A
 66
     1
 10
0.0
 20
0.0
 30
0.0
 70
     1
 40
0.045
 41
0.045
  0
VERTEX
  8
0
  5
13B
 10
91.18282
 20
-31.899656
 30
0.0
 42
1.0
  0
VERTEX
  8
0
  5
13C
 10
91.18431
 20
-31.844676
 30
0.0
 42
1.0
  0
SEQEND
  8
0
  5
13D
  0
POLYLINE
  8
0
  5
13E
 66
     1
 10
0.0
 20
0.0
 30
0.0
 70
     1
 40
0.045
 41
0.045
  0
VERTEX
  8
0
  5
13F
 10
90.298381
 20
-31.432998
 30
0.0
 42
1.0
  0
VERTEX
  8
0
  5
140
 10
90.299872
 20
-31.378019
 30
0.0
 42
1.0
  0
SEQEND
  8
0
  5
141
  0
POLYLINE
  8
0
  5
142
 66
     1
 10
0.0
 20
0.0
 30
0.0
 70
     1
 40
0.045
 41
0.045
  0
VERTEX
  8
0
  5
143
 10
89.413943
 20
-30.966341
 30
0.0
 42
1.0
  0
VERTEX
  8
0
  5
144
 10
89.415433
 20
-30.911361
 30
0.0
 42
1.0
  0
SEQEND
  8
0
  5
145
  0
POLYLINE
  8
0
  5
146
 66
     1
 10
0.0
 20
0.0
 30
0.0
 70
     1
 40
0.045
 41
0.045
  0
VERTEX
  8
0
  5
147
 10
88.529505
 20
-30.499684
 30
0.0
 42
1.0
  0
VERTEX
  8
0
  5
148
 10
88.530995
 20
-30.444704
 30
0.0
 42
1.0
  0
SEQEND
  8
0
  5
149
  0
POLYLINE
  8
0
  5
162
 66
     1
 10
0.0
 20
0.0
 30
0.0
 70
     1
 40
0.045
 41
0.045
  0
VERTEX
  8
0
  5
163
 10
96.542578
 20
-22.976253
 30
0.0
 42
1.0
  0
VERTEX
  8
0
  5
164
 10
96.49075
 20
-22.957846
 30
0.0
 42
1.0
  0
SEQEND
  8
0
  5
165
  0
POLYLINE
  8
0
  5
166
 66
     1
 10
0.0
 20
0.0
 30
0.0
 70
     1
 40
0.045
 41
0.045
  0
VERTEX
  8
0
  5
167
 10
95.825454
 20
-23.673198
 30
0.0
 42
1.0
  0
VERTEX
  8
0
  5
168
 10
95.773626
 20
-23.654791
 30
0.0
 42
1.0
  0
SEQEND
  8
0
  5
169
  0
POLYLINE
  8
0
  5
16A
 66
     1
 10
0.0
 20
0.0
 30
0.0
 70
     1
 40
0.045
 41
0.045
  0
VERTEX
  8
0
  5
16B
 10
95.10833
 20
-24.370144
 30
0.0
 42
1.0
  0
VERTEX
  8
0
  5
16C
 10
95.056502
 20
-24.351737
 30
0.0
 42
1.0
  0
SEQEND
  8
0
  5
16D
  0
POLYLINE
  8
0
  5
16E
 66
     1
 10
0.0
 20
0.0
 30
0.0
 70
     1
 40
0.045
 41
0.045
  0
VERTEX
  8
0
  5
16F
 10
94.391207
 20
-25.06709
 30
0.0
 42
1.0
  0
VERTEX
  8
0
  5
170
 10
94.339378
 20
-25.048683
 30
0.0
 42
1.0
  0
SEQEND
  8
0
  5
171
  0
POLYLINE
  8
0
  5
172
 66
     1
 10
0.0
 20
0.0
 30
0.0
 70
     1
 40
0.045
 41
0.045
  0
VERTEX
  8
0
  5
173
 10
93.674083
 20
-25.764035
 30
0.0
 42
1.0
  0
VERTEX
  8
0
  5
174
 10
93.622254
 20
-25.745628
 30
0.0
 42
1.0
  0
SEQEND
  8
0
  5
175
  0
POLYLINE
  8
0
  5
176
 66
     1
 10
0.0
 20
0.0
 30
0.0
 70
     1
 40
0.045
 41
0.045
  0
VERTEX
  8
0
  5
177
 10
92.956959
 20
-26.460981
 30
0.0
 42
1.0
  0
VERTEX
  8
0
  5
178
 10
92.90513
 20
-26.442574
 30
0.0
 42
1.0
  0
SEQEND
  8
0
  5
179
  0
POLYLINE
  8
0
  5
1AA
 66
     1
 10
0.0
 20
0.0
 30
0.0
 70
     1
 40
0.045
 41
0.045
  0
VERTEX
  8
0
  5
1AB
 10
79.312312
 20
-22.887209
 30
0.0
 42
1.0
  0
VERTEX
  8
0
  5
1AC
 10
79.295436
 20
-22.939556
 30
0.0
 42
1.0
  0
SEQEND
  8
0
  5
1AD
  0
POLYLINE
  8
0
  5
1AE
 66
     1
 10
0.0
 20
0.0
 30
0.0
 70
     1
 40
0.045
 41
0.045
  0
VERTEX
  8
0
  5
1AF
 10
80.030031
 20
-23.583541
 30
0.0
 42
1.0
  0
VERTEX
  8
0
  5
1B0
 10
80.013155
 20
-23.635888
 30
0.0
 42
1.0
  0
SEQEND
  8
0
  5
1B1
  0
POLYLINE
  8
0
  5
1B2
 66
     1
 10
0.0
 20
0.0
 30
0.0
 70
     1
 40
0.045
 41
0.045
  0
VERTEX
  8
0
  5
1B3
 10
80.747751
 20
-24.279874
 30
0.0
 42
1.0
  0
VERTEX
  8
0
  5
1B4
 10
80.730875
 20
-24.332221
 30
0.0
 42
1.0
  0
SEQEND
  8
0
  5
1B5
  0
POLYLINE
  8
0
  5
1B6
 66
     1
 10
0.0
 20
0.0
 30
0.0
 70
     1
 40
0.045
 41
0.045
  0
VERTEX
  8
0
  5
1B7
 10
81.46547
 20
-24.976206
 30
0.0
 42
1.0
  0
VERTEX
  8
0
  5
1B8
 10
81.448594
 20
-25.028553
 30
0.0
 42
1.0
  0
SEQEND
  8
0
  5
1B9
  0
POLYLINE
  8
0
  5
1BA
 66
     1
 10
0.0
 20
0.0
 30
0.0
 70
     1
 40
0.045
 41
0.045
  0
VERTEX
  8
0
  5
1BB
 10
82.18319
 20
-25.672539
 30
0.0
 42
1.0
  0
VERTEX
  8
0
  5
1BC
 10
82.166314
 20
-25.724886
 30
0.0
 42
1.0
  0
SEQEND
  8
0
  5
1BD
  0
POLYLINE
  8
0
  5
1BE
 66
     1
 10
0.0
 20
0.0
 30
0.0
 70
     1
 40
0.045
 41
0.045
  0
VERTEX
  8
0
  5
1BF
 10
82.900909
 20
-26.368871
 30
0.0
 42
1.0
  0
VERTEX
  8
0
  5
1C0
 10
82.884033
 20
-26.421218
 30
0.0
 42
1.0
  0
SEQEND
  8
0
  5
1C1
  0
POLYLINE
  8
0
  5
1DA
 66
     1
 10
0.0
 20
0.0
 30
0.0
 70
     1
 40
0.045
 41
0.045
  0
VERTEX
  8
0
  5
1DB
 10
82.903591
 20
-32.796323
 30
0.0
 42
1.0
  0
VERTEX
  8
0
  5
1DC
 10
82.948161
 20
-32.828549
 30
0.0
 42
1.0
  0
SEQEND
  8
0
  5
1DD
  0
POLYLINE
  8
0
  5
1DE
 66
     1
 10
0.0
 20
0.0
 30
0.0
 70
     1
 40
0.045
 41
0.045
  0
VERTEX
  8
0
  5
1DF
 10
83.78763
 20
-32.32891
 30
0.0
 42
1.0
  0
VERTEX
  8
0
  5
1E0
 10
83.8322
 20
-32.361136
 30
0.0
 42
1.0
  0
SEQEND
  8
0
  5
1E1
  0
POLYLINE
  8
0
  5
1E2
 66
     1
 10
0.0
 20
0.0
 30
0.0
 70
     1
 40
0.045
 41
0.045
  0
VERTEX
  8
0
  5
1E3
 10
84.671669
 20
-31.861497
 30
0.0
 42
1.0
  0
VERTEX
  8
0
  5
1E4
 10
84.716239
 20
-31.893723
 30
0.0
 42
1.0
  0
SEQEND
  8
0
  5
1E5
  0
POLYLINE
  8
0
  5
1E6
 66
     1
 10
0.0
 20
0.0
 30
0.0
 70
     1
 40
0.045
 41
0.045
  0
VERTEX
  8
0
  5
1E7
 10
85.555708
 20
-31.394083
 30
0.0
 42
1.0
  0
VERTEX
  8
0
  5
1E8
 10
85.600278
 20
-31.426309
 30
0.0
 42
1.0
  0
SEQEND
  8
0
  5
1E9
  0
POLYLINE
  8
0
  5
1EA
 66
     1
 10
0.0
 20
0.0
 30
0.0
 70
     1
 40
0.045
 41
0.045
  0
VERTEX
  8
0
  5
1EB
 10
86.439747
 20
-30.92667
 30
0.0
 42
1.0
  0
VERTEX
  8
0
  5
1EC
 10
86.484317
 20
-30.958896
 30
0.0
 42
1.0
  0
SEQEND
  8
0
  5
1ED
  0
POLYLINE
  8
0
  5
1EE
 66
     1
 10
0.0
 20
0.0
 30
0.0
 70
     1
 40
0.045
 41
0.045
  0
VERTEX
  8
0
  5
1EF
 10
87.323785
 20
-30.459257
 30
0.0
 42
1.0
  0
VERTEX
  8
0
  5
1F0
 10
87.368355
 20
-30.491483
 30
0.0
 42
1.0
  0
SEQEND
  8
0
  5
1F1
  0
POLYLINE
  8
0
  5
20A
 66
     1
 10
0.0
 20
0.0
 30
0.0
 70
     1
 40
0.045
 41
0.045
  0
VERTEX
  8
0
  5
20B
 10
93.443082
 20
-32.437841
 30
0.0
 42
1.0
  0
VERTEX
  8
0
  5
20C
 10
93.487504
 20
-32.405411
 30
0.0
 42
1.0
  0
SEQEND
  8
0
  5
20D
  0
POLYLINE
  8
0
  5
20E
 66
     1
 10
0.0
 20
0.0
 30
0.0
 70
     1
 40
0.045
 41
0.045
  0
VERTEX
  8
0
  5
20F
 10
93.271729
 20
-31.452632
 30
0.0
 42
1.0
  0
VERTEX
  8
0
  5
210
 10
93.316151
 20
-31.420201
 30
0.0
 42
1.0
  0
SEQEND
  8
0
  5
211
  0
POLYLINE
  8
0
  5
212
 66
     1
 10
0.0
 20
0.0
 30
0.0
 70
     1
 40
0.045
 41
0.045
  0
VERTEX
  8
0
  5
213
 10
93.100376
 20
-30.467422
 30
0.0
 42
1.0
  0
VERTEX
  8
0
  5
214
 10
93.144797
 20
-30.434992
 30
0.0
 42
1.0
  0
SEQEND
  8
0
  5
215
  0
POLYLINE
  8
0
  5
216
 66
     1
 10
0.0
 20
0.0
 30
0.0
 70
     1
 40
0.045
 41
0.045
  0
VERTEX
  8
0
  5
217
 10
92.929022
 20
-29.482212
 30
0.0
 42
1.0
  0
VERTEX
  8
0
  5
218
 10
92.973444
 20
-29.449782
 30
0.0
 42
1.0
  0
SEQEND
  8
0
  5
219
  0
POLYLINE
  8
0
  5
21A
 66
     1
 10
0.0
 20
0.0
 30
0.0
 70
     1
 40
0.045
 41
0.045
  0
VERTEX
  8
0
  5
21B
 10
92.757669
 20
-28.497003
 30
0.0
 42
1.0
  0
VERTEX
  8
0
  5
21C
 10
92.802091
 20
-28.464572
 30
0.0
 42
1.0
  0
SEQEND
  8
0
  5
21D
  0
POLYLINE
  8
0
  5
21E
 66
     1
 10
0.0
 20
0.0
 30
0.0
 70
     1
 40
0.045
 41
0.045
  0
VERTEX
  8
0
  5
21F
 10
92.586316
 20
-27.511793
 30
0.0
 42
1.0
  0
VERTEX
  8
0
  5
220
 10
92.630737
 20
-27.479363
 30
0.0
 42
1.0
  0
SEQEND
  8
0
  5
221
  0
POLYLINE
  8
0
  5
23A
 66
     1
 10
0.0
 20
0.0
 30
0.0
 70
     1
 40
0.045
 41
0.045
  0
VERTEX
  8
0
  5
23B
 10
96.370035
 20
-22.324897
 30
0.0
 42
1.0
  0
VERTEX
  8
0
  5
23C
 10
96.352919
 20
-22.272628
 30
0.0
 42
1.0
  0
SEQEND
  8
0
  5
23D
  0
POLYLINE
  8
0
  5
23E
 66
     1
 10
0.0
 20
0.0
 30
0.0
 70
     1
 40
0.045
 41
0.045
  0
VERTEX
  8
0
  5
23F
 10
95.380094
 20
-22.183418
 30
0.0
 42
1.0
  0
VERTEX
  8
0
  5
240
 10
95.362978
 20
-22.131149
 30
0.0
 42
1.0
  0
SEQEND
  8
0
  5
241
  0
POLYLINE
  8
0
  5
242
 66
     1
 10
0.0
 20
0.0
 30
0.0
 70
     1
 40
0.045
 41
0.045
  0
VERTEX
  8
0
  5
243
 10
94.390153
 20
-22.041938
 30
0.0
 42
1.0
  0
VERTEX
  8
0
  5
244
 10
94.373037
 20
-21.989669
 30
0.0
 42
1.0
  0
SEQEND
  8
0
  5
245
  0
POLYLINE
  8
0
  5
246
 66
     1
 10
0.0
 20
0.0
 30
0.0
 70
     1
 40
0.045
 41
0.045
  0
VERTEX
  8
0
  5
247
 10
93.400212
 20
-21.900458
 30
0.0
 42
1.0
  0
VERTEX
  8
0
  5
248
 10
93.383096
 20
-21.848189
 30
0.0
 42
1.0
  0
SEQEND
  8
0
  5
249
  0
POLYLINE
  8
0
  5
24A
 66
     1
 10
0.0
 20
0.0
 30
0.0
 70
     1
 40
0.045
 41
0.045
  0
VERTEX
  8
0
  5
24B
 10
92.41027
 20
-21.758978
 30
0.0
 42
1.0
  0
VERTEX
  8
0
  5
24C
 10
92.393155
 20
-21.706709
 30
0.0
 42
1.0
  0
SEQEND
  8
0
  5
24D
  0
POLYLINE
  8
0
  5
24E
 66
     1
 10
0.0
 20
0.0
 30
0.0
 70
     1
 40
0.045
 41
0.045
  0
VERTEX
  8
0
  5
24F
 10
91.420329
 20
-21.617498
 30
0.0
 42
1.0
  0
VERTEX
  8
0
  5
250
 10
91.403213
 20
-21.565229
 30
0.0
 42
1.0
  0
SEQEND
  8
0
  5
251
  0
LINE
  8
0
  5
26B
 10
85.36561
 20
-21.379532
 30
0.0
 11
87.940727
 21
-16.161775
 31
0.0
  0
LINE
  8
0
  5
26C
 10
87.940727
 20
-16.161775
 30
0.0
 11
90.515844
 21
-21.379532
 31
0.0
  0
LINE
  8
0
  5
26D
 10
86.518899
 20
-19.833556
 30
0.0
 11
87.940727
 21
-16.952618
 31
0.0
  0
LINE
  8
0
  5
26E
 10
87.940727
 20
-16.952618
 30
0.0
 11
89.362555
 21
-19.833556
 31
0.0
  0
LINE
  8
0
  5
26F
 10
86.909204
 20
-19.833556
 30
0.0
 11
87.940727
 21
-17.743461
 31
0.0
  0
LINE
  8
0
  5
272
 10
87.940727
 20
-17.743461
 30
0.0
 11
88.60969
 21
-19.098927
 31
0.0
  0
LINE
  8
0
  5
275
 10
86.909204
 20
-19.833556
 30
0.0
 11
89.362555
 21
-19.833556
 31
0.0
  0
LINE
  8
0
  5
278
 10
87.687928
 20
-19.098927
 30
0.0
 11
88.60969
 21
-19.098927
 31
0.0
  0
LINE
  8
0
  5
279
 10
80.686571
 20
-23.013914
 30
0.0
 11
82.182417
 21
-22.796555
 31
0.0
  0
LINE
  8
0
  5
27A
 10
81.897577
 20
-23.673203
 30
0.0
 11
82.182417
 21
-22.796555
 31
0.0
  0
LINE
  8
0
  5
27B
 10
82.355612
 20
-24.640826
 30
0.0
 11
80.686571
 21
-23.013914
 31
0.0
  0
LINE
  8
0
  5
27C
 10
82.355612
 20
-24.640826
 30
0.0
 11
83.113739
 21
-22.30755
 31
0.0
  0
LINE
  8
0
  5
27D
 10
82.235001
 20
-25.012028
 30
0.0
 11
79.934435
 21
-22.76953
 31
0.0
  0
LINE
  8
0
  5
27E
 10
79.934435
 20
-22.76953
 30
0.0
 11
83.113739
 21
-22.30755
 31
0.0
  0
LINE
  8
0
  5
27F
 10
83.457412
 20
-31.541686
 30
0.0
 11
83.712933
 21
-30.051884
 31
0.0
  0
LINE
  8
0
  5
280
 10
84.458654
 20
-30.593682
 30
0.0
 11
83.712933
 21
-30.051884
 31
0.0
  0
LINE
  8
0
  5
281
 10
85.52046
 20
-30.457078
 30
0.0
 11
83.457412
 21
-31.541686
 31
0.0
  0
LINE
  8
0
  5
282
 10
85.52046
 20
-30.457078
 30
0.0
 11
83.535656
 21
-29.015034
 31
0.0
  0
LINE
  8
0
  5
283
 10
85.836222
 20
-30.686493
 30
0.0
 11
82.992566
 21
-32.181491
 31
0.0
  0
LINE
  8
0
  5
284
 10
82.992566
 20
-32.181491
 30
0.0
 11
83.535656
 21
-29.015034
 31
0.0
  0
LINE
  8
0
  5
285
 10
92.424042
 20
-31.541686
 30
0.0
 11
91.086117
 21
-30.838297
 31
0.0
  0
LINE
  8
0
  5
286
 10
91.831838
 20
-30.296499
 30
0.0
 11
91.086117
 21
-30.838297
 31
0.0
  0
LINE
  8
0
  5
287
 10
92.030035
 20
-29.244449
 30
0.0
 11
92.424042
 21
-31.541686
 31
0.0
  0
LINE
  8
0
  5
288
 10
92.030035
 20
-29.244449
 30
0.0
 11
90.045232
 21
-30.686493
 31
0.0
  0
LINE
  8
0
  5
289
 10
92.345798
 20
-29.015034
 30
0.0
 11
92.888888
 21
-32.181491
 31
0.0
  0
LINE
  8
0
  5
28A
 10
92.888888
 20
-32.181491
 30
0.0
 11
90.045232
 21
-30.686493
 31
0.0
  0
LINE
  8
0
  5
28B
 10
95.194883
 20
-23.013914
 30
0.0
 11
94.112479
 21
-24.068997
 31
0.0
  0
LINE
  8
0
  5
28C
 10
93.827639
 20
-23.19235
 30
0.0
 11
94.112479
 21
-24.068997
 31
0.0
  0
LINE
  8
0
  5
28D
 10
92.888326
 20
-22.678752
 30
0.0
 11
95.194883
 21
-23.013914
 31
0.0
  0
LINE
  8
0
  5
28E
 10
92.888326
 20
-22.678752
 30
0.0
 11
93.646454
 21
-25.012028
 31
0.0
  0
LINE
  8
0
  5
28F
 10
92.767715
 20
-22.30755
 30
0.0
 11
95.94702
 21
-22.76953
 31
0.0
  0
LINE
  8
0
  5
290
 10
95.94702
 20
-22.76953
 30
0.0
 11
93.646454
 21
-25.012028
 31
0.0
  0
LINE
  8
0
  5
291
 10
90.941019
 20
-21.68844
 30
0.0
 11
96.699156
 21
-22.525146
 31
0.0
  0
LINE
  8
0
  5
292
 10
96.699156
 20
-22.525146
 30
0.0
 11
92.532529
 21
-26.586604
 31
0.0
  0
LINE
  8
0
  5
293
 10
92.370127
 20
-27.086426
 30
0.0
 11
93.353734
 21
-32.821297
 31
0.0
  0
LINE
  8
0
  5
294
 10
93.353734
 20
-32.821297
 30
0.0
 11
88.2035
 21
-30.113658
 31
0.0
  0
LINE
  8
0
  5
295
 10
82.527721
 20
-32.821297
 30
0.0
 11
83.511328
 21
-27.086426
 31
0.0
  0
LINE
  8
0
  5
296
 10
87.677955
 20
-30.113658
 30
0.0
 11
82.527721
 21
-32.821297
 31
0.0
  0
LINE
  8
0
  5
297
 10
79.182298
 20
-22.525146
 30
0.0
 11
84.940435
 21
-21.68844
 31
0.0
  0
LINE
  8
0
  5
298
 10
83.348926
 20
-26.586604
 30
0.0
 11
79.182298
 21
-22.525146
 31
0.0
  0
ARC
  8
0
  5
299
 10
78.430162
 20
-22.280762
 30
0.0
 40
0.285725
 50
189.66785
 51
341.943452
  0
ARC
  8
0
  5
29A
 10
78.430162
 20
-22.280762
 30
0.0
 40
0.385999
 50
193.871708
 51
314.783341
  0
ARC
  8
0
  5
29B
 10
82.062875
 20
-33.461102
 30
0.0
 40
0.285725
 50
261.66785
 51
53.943452
  0
ARC
  8
0
  5
29C
 10
82.062875
 20
-33.461102
 30
0.0
 40
0.385999
 50
265.871708
 51
26.783341
  0
ARC
  8
0
  5
29D
 10
93.81858
 20
-33.461102
 30
0.0
 40
0.285725
 50
333.66785
 51
125.943452
  0
ARC
  8
0
  5
29E
 10
93.81858
 20
-33.461102
 30
0.0
 40
0.385999
 50
337.871708
 51
98.783341
  0
ARC
  8
0
  5
29F
 10
97.451292
 20
-22.280762
 30
0.0
 40
0.285725
 50
45.66785
 51
197.943452
  0
ARC
  8
0
  5
2A0
 10
97.451292
 20
-22.280762
 30
0.0
 40
0.385999
 50
49.871708
 51
170.783341
  0
LINE
  8
0
  5
2AB
 10
87.940727
 20
-22.870932
 30
0.0
 11
88.675459
 21
-24.359661
 31
0.0
  0
LINE
  8
0
  5
2AC
 10
88.675459
 20
-24.359661
 30
0.0
 11
90.318368
 21
-24.59839
 31
0.0
  0
LINE
  8
0
  5
2AD
 10
90.318368
 20
-24.59839
 30
0.0
 11
89.129548
 21
-25.757203
 31
0.0
  0
LINE
  8
0
  5
2AE
 10
89.129548
 20
-25.757203
 30
0.0
 11
89.41019
 21
-27.393475
 31
0.0
  0
LINE
  8
0
  5
2AF
 10
89.41019
 20
-27.393475
 30
0.0
 11
87.940727
 21
-26.620932
 31
0.0
  0
LINE
  8
0
  5
2B0
 10
87.940727
 20
-26.620932
 30
0.0
 11
86.471264
 21
-27.393475
 31
0.0
  0
LINE
  8
0
  5
2B1
 10
86.471264
 20
-27.393475
 30
0.0
 11
86.751907
 21
-25.757203
 31
0.0
  0
LINE
  8
0
  5
2B2
 10
86.751907
 20
-25.757203
 30
0.0
 11
85.563086
 21
-24.59839
 31
0.0
  0
LINE
  8
0
  5
2B3
 10
85.563086
 20
-24.59839
 30
0.0
 11
87.205996
 21
-24.359661
 31
0.0
  0
LINE
  8
0
  5
2B4
 10
87.205996
 20
-24.359661
 30
0.0
 11
87.940727
 21
-22.870932
 31
0.0
  0
INSERT
  8
0
  5
2B6
  2
*X1
 10
77.940727
 20
-35.370932
 30
0.0
 50
360.0
1001
ACAD
1000
HATCH
1002
{
1070
    16
1000
DOTS
1040
1.0
1040
0.0
1002
}
  0
INSERT
  8
0
  5
3A4
  2
*X2
 10
77.940727
 20
-35.370932
 30
0.0
 50
360.0
1001
ACAD
1000
HATCH
1002
{
1070
    16
1000
DOTS
1040
1.0
1040
0.0
1002
}
  0
TEXT
  8
0
 62
     7
 39
0.9
  5
759
 10
85.051578
 20
-24.113945
 30
0.0
 40
2.0
  1
S
 50
48.701837
  7
PANROMAN
  0
TEXT
  8
0
  5
75A
 10
85.68571
 20
-23.395837
 30
0.0
 40
2.0
  1
H
 50
33.84803
  7
PANROMAN
  0
TEXT
  8
0
  5
75B
 10
86.858931
 20
-22.647038
 30
0.0
 40
2.0
  1
E
 50
10.889553
  7
PANROMAN
  0
TEXT
  8
0
  5
75C
 10
87.957036
 20
-22.423469
 30
0.0
 40
2.0
  1
R
 50
348.4992
  7
PANROMAN
  0
TEXT
  8
0
  5
75D
 10
89.084957
 20
-22.6956
 30
0.0
 40
2.0
  1
I
 50
336.029452
  7
PANROMAN
  0
TEXT
  8
0
  5
75E
 10
89.754341
 20
-23.004036
 30
0.0
 40
2.0
  1
F
 50
314.21283
  7
PANROMAN
  0
TEXT
  8
0
  5
75F
 10
90.352615
 20
-23.65129
 30
0.0
 40
2.0
  1
F
 50
297.234815
  7
PANROMAN
  0
TEXT
  8
0
  5
760
 10
83.802056
 20
-26.519452
 30
0.0
 40
2.0
  1
M
 50
297.754598
  7
PANROMAN
  0
TEXT
  8
0
  5
761
 10
84.569165
 20
-28.04054
 30
0.0
 40
2.0
  1
A
 50
317.210946
  7
PANROMAN
  0
TEXT
  8
0
  5
762
 10
85.407647
 20
-28.873198
 30
0.0
 40
2.0
  1
Y
 50
333.829401
  7
PANROMAN
  0
TEXT
  8
0
  5
763
 10
86.779957
 20
-29.470979
 30
0.0
 40
2.0
  1
B
 50
349.701862
  7
PANROMAN
  0
TEXT
  8
0
  5
764
 10
88.185868
 20
-29.613255
 30
0.0
 40
2.0
  1
E
 50
9.497666
  7
PANROMAN
  0
TEXT
  8
0
  5
765
 10
89.621442
 20
-29.262235
 30
0.0
 40
2.0
  1
R
 50
28.650238
  7
PANROMAN
  0
TEXT
  8
0
  5
766
 10
90.668864
 20
-28.584362
 30
0.0
 40
2.0
  1
R
 50
40.825826
  7
PANROMAN
  0
TEXT
  8
0
  5
767
 10
91.608083
 20
-27.582944
 30
0.0
 40
2.0
  1
Y
 50
60.1993
  7
PANROMAN
  0
CIRCLE
  8
0
  5
76B
 10
87.940727
 20
-25.370932
 30
0.0
 40
10.7
  0
ENDSEC
  0
EOF
